  0
SECTION
  2
HEADER
  9
$ACADVER
  1
AC1014
  9
$HANDSEED
  5
FFFF
  9
$MEASUREMENT
 70
     1
  0
ENDSEC
  0
SECTION
  2
TABLES
  0
TABLE
  2
VPORT
  5
8
330
0
100
AcDbSymbolTable
 70
     4
  0
VPORT
  5
2E
330
8
100
AcDbSymbolTableRecord
100
AcDbViewportTableRecord
  2
*ACTIVE
 70
     0
 10
0.0
 20
0.0
 11
1.0
 21
1.0
 12
210.0
 22
148.5
 13
0.0
 23
0.0
 14
10.0
 24
10.0
 15
10.0
 25
10.0
 16
0.0
 26
0.0
 36
1.0
 17
0.0
 27
0.0
 37
0.0
 40
341.0
 41
1.24
 42
50.0
 43
0.0
 44
0.0
 50
0.0
 51
0.0
 71
     0
 72
   100
 73
     1
 74
     3
 75
     0
 76
     0
 77
     0
 78
     0
  0
ENDTAB
  0
TABLE
  2
LTYPE
  5
5
330
0
100
AcDbSymbolTable
 70
     1
  0
LTYPE
  5
14
330
5
100
AcDbSymbolTableRecord
100
AcDbLinetypeTableRecord
  2
BYBLOCK
 70
     0
  3

 72
    65
 73
     0
 40
0.0
  0
LTYPE
  5
15
330
5
100
AcDbSymbolTableRecord
100
AcDbLinetypeTableRecord
  2
BYLAYER
 70
     0
  3

 72
    65
 73
     0
 40
0.0
  0
LTYPE
  5
16
330
5
100
AcDbSymbolTableRecord
100
AcDbLinetypeTableRecord
  2
CONTINUOUS
 70
     0
  3
Solid line
 72
    65
 73
     0
 40
0.0
  0
ENDTAB
  0
TABLE
  2
LAYER
  5
2
100
AcDbSymbolTable
 70
2
  0
LAYER
  5
50
100
AcDbSymbolTableRecord
100
AcDbLayerTableRecord
  2
0
 70
0
  6
CONTINUOUS
  0
LAYER
  5
51
100
AcDbSymbolTableRecord
100
AcDbLayerTableRecord
  2
Ebene_1
 70
0
  6
CONTINUOUS
  0
ENDTAB
  0
TABLE
  2
STYLE
  5
3
330
0
100
AcDbSymbolTable
 70
     1
  0
STYLE
  5
11
330
3
100
AcDbSymbolTableRecord
100
AcDbTextStyleTableRecord
  2
STANDARD
 70
     0
 40
0.0
 41
1.0
 50
0.0
 71
     0
 42
2.5
  3
txt
  4

  0
ENDTAB
  0
TABLE
  2
VIEW
  5
6
330
0
100
AcDbSymbolTable
 70
     0
  0
ENDTAB
  0
TABLE
  2
UCS
  5
7
330
0
100
AcDbSymbolTable
 70
     0
  0
ENDTAB
  0
TABLE
  2
APPID
  5
9
330
0
100
AcDbSymbolTable
 70
     2
  0
APPID
  5
12
330
9
100
AcDbSymbolTableRecord
100
AcDbRegAppTableRecord
  2
ACAD
 70
     0
  0
ENDTAB
  0
TABLE
  2
DIMSTYLE
  5
A
330
0
100
AcDbSymbolTable
 70
     1
  0
DIMSTYLE
105
27
330
A
100
AcDbSymbolTableRecord
100
AcDbDimStyleTableRecord
  2
ISO-25
 70
     0
  3

  4

  5

  6

  7

 40
1.0
 41
2.5
 42
0.625
 43
3.75
 44
1.25
 45
0.0
 46
0.0
 47
0.0
 48
0.0
140
2.5
141
2.5
142
0.0
143
0.03937007874016
144
1.0
145
0.0
146
1.0
147
0.625
 71
     0
 72
     0
 73
     0
 74
     0
 75
     0
 76
     0
 77
     1
 78
     8
170
     0
171
     3
172
     1
173
     0
174
     0
175
     0
176
     0
177
     0
178
     0
270
     2
271
     2
272
     2
273
     2
274
     3
340
11
275
     0
280
     0
281
     0
282
     0
283
     0
284
     8
285
     0
286
     0
287
     3
288
     0
  0
ENDTAB
  0
TABLE
  2
BLOCK_RECORD
  5
1
330
0
100
AcDbSymbolTable
 70
     1
  0
BLOCK_RECORD
  5
1F
330
1
100
AcDbSymbolTableRecord
100
AcDbBlockTableRecord
  2
*MODEL_SPACE
  0
BLOCK_RECORD
  5
1B
330
1
100
AcDbSymbolTableRecord
100
AcDbBlockTableRecord
  2
*PAPER_SPACE
  0
ENDTAB
  0
ENDSEC
  0
SECTION
  2
BLOCKS
  0
BLOCK
  5
20
330
1F
100
AcDbEntity
  8
0
100
AcDbBlockBegin
  2
*MODEL_SPACE
 70
     0
 10
0.0
 20
0.0
 30
0.0
  3
*MODEL_SPACE
  1

  0
ENDBLK
  5
21
330
1F
100
AcDbEntity
  8
0
100
AcDbBlockEnd
  0
BLOCK
  5
1C
330
1B
100
AcDbEntity
 67
     1
  8
0
100
AcDbBlockBegin
  2
*PAPER_SPACE
  1

  0
ENDBLK
  5
1D
330
1B
100
AcDbEntity
 67
     1
  8
0
100
AcDbBlockEnd
  0
ENDSEC
  0
SECTION
  2
ENTITIES
  0
LINE
  5
100
100
AcDbEntity
  8
Ebene_1
 62
7
100
AcDbLine
 10
37.009327
 20
12.680090
 30
0.0
 11
36.950107
 21
11.483870
 31
0.0
  0
LINE
  5
101
100
AcDbEntity
  8
Ebene_1
 62
7
100
AcDbLine
 10
36.950107
 20
11.483870
 30
0.0
 11
36.774629
 21
10.307910
 31
0.0
  0
LINE
  5
102
100
AcDbEntity
  8
Ebene_1
 62
7
100
AcDbLine
 10
36.774629
 20
10.307910
 30
0.0
 11
36.486181
 21
9.160150
 31
0.0
  0
LINE
  5
103
100
AcDbEntity
  8
Ebene_1
 62
7
100
AcDbLine
 10
36.486181
 20
9.160150
 30
0.0
 11
36.088053
 21
8.048520
 31
0.0
  0
LINE
  5
104
100
AcDbEntity
  8
Ebene_1
 62
7
100
AcDbLine
 10
36.088053
 20
8.048520
 30
0.0
 11
35.583532
 21
6.980960
 31
0.0
  0
LINE
  5
105
100
AcDbEntity
  8
Ebene_1
 62
7
100
AcDbLine
 10
35.583532
 20
6.980960
 30
0.0
 11
34.975904
 21
5.965400
 31
0.0
  0
LINE
  5
106
100
AcDbEntity
  8
Ebene_1
 62
7
100
AcDbLine
 10
34.975904
 20
5.965400
 30
0.0
 11
34.268456
 21
5.009790
 31
0.0
  0
LINE
  5
107
100
AcDbEntity
  8
Ebene_1
 62
7
100
AcDbLine
 10
34.268456
 20
5.009790
 30
0.0
 11
33.464477
 21
4.122060
 31
0.0
  0
LINE
  5
108
100
AcDbEntity
  8
Ebene_1
 62
7
100
AcDbLine
 10
33.464477
 20
4.122060
 30
0.0
 11
32.576743
 21
3.318080
 31
0.0
  0
LINE
  5
109
100
AcDbEntity
  8
Ebene_1
 62
7
100
AcDbLine
 10
32.576743
 20
3.318080
 30
0.0
 11
31.621131
 21
2.610630
 31
0.0
  0
LINE
  5
10a
100
AcDbEntity
  8
Ebene_1
 62
7
100
AcDbLine
 10
31.621131
 20
2.610630
 30
0.0
 11
30.605577
 21
2.003000
 31
0.0
  0
LINE
  5
10b
100
AcDbEntity
  8
Ebene_1
 62
7
100
AcDbLine
 10
30.605577
 20
2.003000
 30
0.0
 11
29.538017
 21
1.498480
 31
0.0
  0
LINE
  5
10c
100
AcDbEntity
  8
Ebene_1
 62
7
100
AcDbLine
 10
29.538017
 20
1.498480
 30
0.0
 11
28.426387
 21
1.100350
 31
0.0
  0
LINE
  5
10d
100
AcDbEntity
  8
Ebene_1
 62
7
100
AcDbLine
 10
28.426387
 20
1.100350
 30
0.0
 11
27.278624
 21
0.811900
 31
0.0
  0
LINE
  5
10e
100
AcDbEntity
  8
Ebene_1
 62
7
100
AcDbLine
 10
27.278624
 20
0.811900
 30
0.0
 11
26.102664
 21
0.636430
 31
0.0
  0
LINE
  5
10f
100
AcDbEntity
  8
Ebene_1
 62
7
100
AcDbLine
 10
26.102664
 20
0.636430
 30
0.0
 11
24.906442
 21
0.577230
 31
0.0
  0
LINE
  5
110
100
AcDbEntity
  8
Ebene_1
 62
7
100
AcDbLine
 10
24.906442
 20
0.577230
 30
0.0
 11
23.710220
 21
0.636430
 31
0.0
  0
LINE
  5
111
100
AcDbEntity
  8
Ebene_1
 62
7
100
AcDbLine
 10
23.710220
 20
0.636430
 30
0.0
 11
22.534259
 21
0.811900
 31
0.0
  0
LINE
  5
112
100
AcDbEntity
  8
Ebene_1
 62
7
100
AcDbLine
 10
22.534259
 20
0.811900
 30
0.0
 11
21.386496
 21
1.100350
 31
0.0
  0
LINE
  5
113
100
AcDbEntity
  8
Ebene_1
 62
7
100
AcDbLine
 10
21.386496
 20
1.100350
 30
0.0
 11
20.274866
 21
1.498480
 31
0.0
  0
LINE
  5
114
100
AcDbEntity
  8
Ebene_1
 62
7
100
AcDbLine
 10
20.274866
 20
1.498480
 30
0.0
 11
19.207307
 21
2.003000
 31
0.0
  0
LINE
  5
115
100
AcDbEntity
  8
Ebene_1
 62
7
100
AcDbLine
 10
19.207307
 20
2.003000
 30
0.0
 11
18.191753
 21
2.610630
 31
0.0
  0
LINE
  5
116
100
AcDbEntity
  8
Ebene_1
 62
7
100
AcDbLine
 10
18.191753
 20
2.610630
 30
0.0
 11
17.236140
 21
3.318080
 31
0.0
  0
LINE
  5
117
100
AcDbEntity
  8
Ebene_1
 62
7
100
AcDbLine
 10
17.236140
 20
3.318080
 30
0.0
 11
16.348407
 21
4.122060
 31
0.0
  0
LINE
  5
118
100
AcDbEntity
  8
Ebene_1
 62
7
100
AcDbLine
 10
16.348407
 20
4.122060
 30
0.0
 11
15.544427
 21
5.009790
 31
0.0
  0
LINE
  5
119
100
AcDbEntity
  8
Ebene_1
 62
7
100
AcDbLine
 10
15.544427
 20
5.009790
 30
0.0
 11
14.836980
 21
5.965400
 31
0.0
  0
LINE
  5
11a
100
AcDbEntity
  8
Ebene_1
 62
7
100
AcDbLine
 10
14.836980
 20
5.965400
 30
0.0
 11
14.229352
 21
6.980960
 31
0.0
  0
LINE
  5
11b
100
AcDbEntity
  8
Ebene_1
 62
7
100
AcDbLine
 10
14.229352
 20
6.980960
 30
0.0
 11
13.724830
 21
8.048520
 31
0.0
  0
LINE
  5
11c
100
AcDbEntity
  8
Ebene_1
 62
7
100
AcDbLine
 10
13.724830
 20
8.048520
 30
0.0
 11
13.326702
 21
9.160150
 31
0.0
  0
LINE
  5
11d
100
AcDbEntity
  8
Ebene_1
 62
7
100
AcDbLine
 10
13.326702
 20
9.160150
 30
0.0
 11
13.038255
 21
10.307910
 31
0.0
  0
LINE
  5
11e
100
AcDbEntity
  8
Ebene_1
 62
7
100
AcDbLine
 10
13.038255
 20
10.307910
 30
0.0
 11
12.862776
 21
11.483870
 31
0.0
  0
LINE
  5
11f
100
AcDbEntity
  8
Ebene_1
 62
7
100
AcDbLine
 10
12.862776
 20
11.483870
 30
0.0
 11
12.803556
 21
12.680090
 31
0.0
  0
LINE
  5
120
100
AcDbEntity
  8
Ebene_1
 62
7
100
AcDbLine
 10
12.803556
 20
12.680090
 30
0.0
 11
12.862776
 21
13.876310
 31
0.0
  0
LINE
  5
121
100
AcDbEntity
  8
Ebene_1
 62
7
100
AcDbLine
 10
12.862776
 20
13.876310
 30
0.0
 11
13.038255
 21
15.052280
 31
0.0
  0
LINE
  5
122
100
AcDbEntity
  8
Ebene_1
 62
7
100
AcDbLine
 10
13.038255
 20
15.052280
 30
0.0
 11
13.326702
 21
16.200040
 31
0.0
  0
LINE
  5
123
100
AcDbEntity
  8
Ebene_1
 62
7
100
AcDbLine
 10
13.326702
 20
16.200040
 30
0.0
 11
13.724830
 21
17.311670
 31
0.0
  0
LINE
  5
124
100
AcDbEntity
  8
Ebene_1
 62
7
100
AcDbLine
 10
13.724830
 20
17.311670
 30
0.0
 11
14.229352
 21
18.379230
 31
0.0
  0
LINE
  5
125
100
AcDbEntity
  8
Ebene_1
 62
7
100
AcDbLine
 10
14.229352
 20
18.379230
 30
0.0
 11
14.836980
 21
19.394780
 31
0.0
  0
LINE
  5
126
100
AcDbEntity
  8
Ebene_1
 62
7
100
AcDbLine
 10
14.836980
 20
19.394780
 30
0.0
 11
15.544427
 21
20.350390
 31
0.0
  0
LINE
  5
127
100
AcDbEntity
  8
Ebene_1
 62
7
100
AcDbLine
 10
15.544427
 20
20.350390
 30
0.0
 11
16.348407
 21
21.238130
 31
0.0
  0
LINE
  5
128
100
AcDbEntity
  8
Ebene_1
 62
7
100
AcDbLine
 10
16.348407
 20
21.238130
 30
0.0
 11
17.236140
 21
22.042110
 31
0.0
  0
LINE
  5
129
100
AcDbEntity
  8
Ebene_1
 62
7
100
AcDbLine
 10
17.236140
 20
22.042110
 30
0.0
 11
18.191752
 21
22.749550
 31
0.0
  0
LINE
  5
12a
100
AcDbEntity
  8
Ebene_1
 62
7
100
AcDbLine
 10
18.191752
 20
22.749550
 30
0.0
 11
19.207307
 21
23.357180
 31
0.0
  0
LINE
  5
12b
100
AcDbEntity
  8
Ebene_1
 62
7
100
AcDbLine
 10
19.207307
 20
23.357180
 30
0.0
 11
20.274866
 21
23.861700
 31
0.0
  0
LINE
  5
12c
100
AcDbEntity
  8
Ebene_1
 62
7
100
AcDbLine
 10
20.274866
 20
23.861700
 30
0.0
 11
21.386496
 21
24.259830
 31
0.0
  0
LINE
  5
12d
100
AcDbEntity
  8
Ebene_1
 62
7
100
AcDbLine
 10
21.386496
 20
24.259830
 30
0.0
 11
22.534259
 21
24.548280
 31
0.0
  0
LINE
  5
12e
100
AcDbEntity
  8
Ebene_1
 62
7
100
AcDbLine
 10
22.534259
 20
24.548280
 30
0.0
 11
23.710220
 21
24.723760
 31
0.0
  0
LINE
  5
12f
100
AcDbEntity
  8
Ebene_1
 62
7
100
AcDbLine
 10
23.710220
 20
24.723760
 30
0.0
 11
24.906442
 21
24.782960
 31
0.0
  0
LINE
  5
130
100
AcDbEntity
  8
Ebene_1
 62
7
100
AcDbLine
 10
24.906442
 20
24.782960
 30
0.0
 11
26.102664
 21
24.723760
 31
0.0
  0
LINE
  5
131
100
AcDbEntity
  8
Ebene_1
 62
7
100
AcDbLine
 10
26.102664
 20
24.723760
 30
0.0
 11
27.278624
 21
24.548280
 31
0.0
  0
LINE
  5
132
100
AcDbEntity
  8
Ebene_1
 62
7
100
AcDbLine
 10
27.278624
 20
24.548280
 30
0.0
 11
28.426387
 21
24.259830
 31
0.0
  0
LINE
  5
133
100
AcDbEntity
  8
Ebene_1
 62
7
100
AcDbLine
 10
28.426387
 20
24.259830
 30
0.0
 11
29.538017
 21
23.861700
 31
0.0
  0
LINE
  5
134
100
AcDbEntity
  8
Ebene_1
 62
7
100
AcDbLine
 10
29.538017
 20
23.861700
 30
0.0
 11
30.605577
 21
23.357180
 31
0.0
  0
LINE
  5
135
100
AcDbEntity
  8
Ebene_1
 62
7
100
AcDbLine
 10
30.605577
 20
23.357180
 30
0.0
 11
31.621131
 21
22.749550
 31
0.0
  0
LINE
  5
136
100
AcDbEntity
  8
Ebene_1
 62
7
100
AcDbLine
 10
31.621131
 20
22.749550
 30
0.0
 11
32.576743
 21
22.042110
 31
0.0
  0
LINE
  5
137
100
AcDbEntity
  8
Ebene_1
 62
7
100
AcDbLine
 10
32.576743
 20
22.042110
 30
0.0
 11
33.464477
 21
21.238130
 31
0.0
  0
LINE
  5
138
100
AcDbEntity
  8
Ebene_1
 62
7
100
AcDbLine
 10
33.464477
 20
21.238130
 30
0.0
 11
34.268456
 21
20.350390
 31
0.0
  0
LINE
  5
139
100
AcDbEntity
  8
Ebene_1
 62
7
100
AcDbLine
 10
34.268456
 20
20.350390
 30
0.0
 11
34.975904
 21
19.394780
 31
0.0
  0
LINE
  5
13a
100
AcDbEntity
  8
Ebene_1
 62
7
100
AcDbLine
 10
34.975904
 20
19.394780
 30
0.0
 11
35.583532
 21
18.379230
 31
0.0
  0
LINE
  5
13b
100
AcDbEntity
  8
Ebene_1
 62
7
100
AcDbLine
 10
35.583532
 20
18.379230
 30
0.0
 11
36.088053
 21
17.311670
 31
0.0
  0
LINE
  5
13c
100
AcDbEntity
  8
Ebene_1
 62
7
100
AcDbLine
 10
36.088053
 20
17.311670
 30
0.0
 11
36.486181
 21
16.200040
 31
0.0
  0
LINE
  5
13d
100
AcDbEntity
  8
Ebene_1
 62
7
100
AcDbLine
 10
36.486181
 20
16.200040
 30
0.0
 11
36.774629
 21
15.052280
 31
0.0
  0
LINE
  5
13e
100
AcDbEntity
  8
Ebene_1
 62
7
100
AcDbLine
 10
36.774629
 20
15.052280
 30
0.0
 11
36.950107
 21
13.876310
 31
0.0
  0
LINE
  5
13f
100
AcDbEntity
  8
Ebene_1
 62
7
100
AcDbLine
 10
36.950107
 20
13.876310
 30
0.0
 11
37.009327
 21
12.680090
 31
0.0
  0
LINE
  5
140
100
AcDbEntity
  8
Ebene_1
 62
7
100
AcDbLine
 10
37.009327
 20
12.680090
 30
0.0
 11
37.009327
 21
12.680090
 31
0.0
  0
LINE
  5
141
100
AcDbEntity
  8
Ebene_1
 62
7
100
AcDbLine
 10
21.344313
 20
15.297775
 30
0.0
 11
21.973732
 21
15.297775
 31
0.0
  0
LINE
  5
142
100
AcDbEntity
  8
Ebene_1
 62
7
100
AcDbLine
 10
21.973732
 20
15.297775
 30
0.0
 11
21.973732
 21
13.400220
 31
0.0
  0
LINE
  5
143
100
AcDbEntity
  8
Ebene_1
 62
7
100
AcDbLine
 10
21.973732
 20
13.400220
 30
0.0
 11
23.688356
 21
13.400220
 31
0.0
  0
LINE
  5
144
100
AcDbEntity
  8
Ebene_1
 62
7
100
AcDbLine
 10
23.688356
 20
13.400220
 30
0.0
 11
23.688356
 21
15.297775
 31
0.0
  0
LINE
  5
145
100
AcDbEntity
  8
Ebene_1
 62
7
100
AcDbLine
 10
23.688356
 20
15.297775
 30
0.0
 11
24.317775
 21
15.297775
 31
0.0
  0
LINE
  5
146
100
AcDbEntity
  8
Ebene_1
 62
7
100
AcDbLine
 10
24.317775
 20
15.297775
 30
0.0
 11
24.317775
 21
10.668600
 31
0.0
  0
LINE
  5
147
100
AcDbEntity
  8
Ebene_1
 62
7
100
AcDbLine
 10
24.317775
 20
10.668600
 30
0.0
 11
23.688356
 21
10.668600
 31
0.0
  0
LINE
  5
148
100
AcDbEntity
  8
Ebene_1
 62
7
100
AcDbLine
 10
23.688356
 20
10.668600
 30
0.0
 11
23.688356
 21
12.873120
 31
0.0
  0
LINE
  5
149
100
AcDbEntity
  8
Ebene_1
 62
7
100
AcDbLine
 10
23.688356
 20
12.873120
 30
0.0
 11
21.973732
 21
12.873120
 31
0.0
  0
LINE
  5
14a
100
AcDbEntity
  8
Ebene_1
 62
7
100
AcDbLine
 10
21.973732
 20
12.873120
 30
0.0
 11
21.973732
 21
10.668600
 31
0.0
  0
LINE
  5
14b
100
AcDbEntity
  8
Ebene_1
 62
7
100
AcDbLine
 10
21.973732
 20
10.668600
 30
0.0
 11
21.344313
 21
10.668600
 31
0.0
  0
LINE
  5
14c
100
AcDbEntity
  8
Ebene_1
 62
7
100
AcDbLine
 10
21.344313
 20
10.668600
 30
0.0
 11
21.344313
 21
15.297775
 31
0.0
  0
LINE
  5
14d
100
AcDbEntity
  8
Ebene_1
 62
7
100
AcDbLine
 10
24.739454
 20
15.297775
 30
0.0
 11
25.350270
 21
15.297775
 31
0.0
  0
LINE
  5
14e
100
AcDbEntity
  8
Ebene_1
 62
7
100
AcDbLine
 10
25.350270
 20
15.297775
 30
0.0
 11
25.793653
 21
11.539865
 31
0.0
  0
LINE
  5
14f
100
AcDbEntity
  8
Ebene_1
 62
7
100
AcDbLine
 10
25.793653
 20
11.539865
 30
0.0
 11
26.320753
 21
14.026535
 31
0.0
  0
LINE
  5
150
100
AcDbEntity
  8
Ebene_1
 62
7
100
AcDbLine
 10
26.320753
 20
14.026535
 30
0.0
 11
26.974976
 21
14.026535
 31
0.0
  0
LINE
  5
151
100
AcDbEntity
  8
Ebene_1
 62
7
100
AcDbLine
 10
26.974976
 20
14.026535
 30
0.0
 11
27.508277
 21
11.533665
 31
0.0
  0
LINE
  5
152
100
AcDbEntity
  8
Ebene_1
 62
7
100
AcDbLine
 10
27.508277
 20
11.533665
 30
0.0
 11
27.951661
 21
15.297775
 31
0.0
  0
LINE
  5
153
100
AcDbEntity
  8
Ebene_1
 62
7
100
AcDbLine
 10
27.951661
 20
15.297775
 30
0.0
 11
28.562476
 21
15.297775
 31
0.0
  0
LINE
  5
154
100
AcDbEntity
  8
Ebene_1
 62
7
100
AcDbLine
 10
28.562476
 20
15.297775
 30
0.0
 11
27.871046
 21
10.668600
 31
0.0
  0
LINE
  5
155
100
AcDbEntity
  8
Ebene_1
 62
7
100
AcDbLine
 10
27.871046
 20
10.668600
 30
0.0
 11
27.278834
 21
10.668600
 31
0.0
  0
LINE
  5
156
100
AcDbEntity
  8
Ebene_1
 62
7
100
AcDbLine
 10
27.278834
 20
10.668600
 30
0.0
 11
26.649415
 21
13.418820
 31
0.0
  0
LINE
  5
157
100
AcDbEntity
  8
Ebene_1
 62
7
100
AcDbLine
 10
26.649415
 20
13.418820
 30
0.0
 11
26.023097
 21
10.668600
 31
0.0
  0
LINE
  5
158
100
AcDbEntity
  8
Ebene_1
 62
7
100
AcDbLine
 10
26.023097
 20
10.668600
 30
0.0
 11
25.430885
 21
10.668600
 31
0.0
  0
LINE
  5
159
100
AcDbEntity
  8
Ebene_1
 62
7
100
AcDbLine
 10
25.430885
 20
10.668600
 30
0.0
 11
24.739454
 21
15.297775
 31
0.0
  0
LINE
  5
15a
100
AcDbEntity
  8
Ebene_1
 62
7
100
AcDbLine
 10
24.906494
 20
36.885590
 30
0.0
 11
23.293461
 21
36.831990
 31
0.0
  0
LINE
  5
15b
100
AcDbEntity
  8
Ebene_1
 62
7
100
AcDbLine
 10
23.293461
 20
36.831990
 30
0.0
 11
21.700233
 21
36.672760
 31
0.0
  0
LINE
  5
15c
100
AcDbEntity
  8
Ebene_1
 62
7
100
AcDbLine
 10
21.700233
 20
36.672760
 30
0.0
 11
20.131220
 21
36.410490
 31
0.0
  0
LINE
  5
15d
100
AcDbEntity
  8
Ebene_1
 62
7
100
AcDbLine
 10
20.131220
 20
36.410490
 30
0.0
 11
18.590832
 21
36.047730
 31
0.0
  0
LINE
  5
15e
100
AcDbEntity
  8
Ebene_1
 62
7
100
AcDbLine
 10
18.590832
 20
36.047730
 30
0.0
 11
17.083477
 21
35.587020
 31
0.0
  0
LINE
  5
15f
100
AcDbEntity
  8
Ebene_1
 62
7
100
AcDbLine
 10
17.083477
 20
35.587020
 30
0.0
 11
15.613564
 21
35.030920
 31
0.0
  0
LINE
  5
160
100
AcDbEntity
  8
Ebene_1
 62
7
100
AcDbLine
 10
15.613564
 20
35.030920
 30
0.0
 11
14.185503
 21
34.381950
 31
0.0
  0
LINE
  5
161
100
AcDbEntity
  8
Ebene_1
 62
7
100
AcDbLine
 10
14.185503
 20
34.381950
 30
0.0
 11
12.803703
 21
33.642680
 31
0.0
  0
LINE
  5
162
100
AcDbEntity
  8
Ebene_1
 62
7
100
AcDbLine
 10
12.803703
 20
33.642680
 30
0.0
 11
11.472574
 21
32.815650
 31
0.0
  0
LINE
  5
163
100
AcDbEntity
  8
Ebene_1
 62
7
100
AcDbLine
 10
11.472574
 20
32.815650
 30
0.0
 11
10.196525
 21
31.903390
 31
0.0
  0
LINE
  5
164
100
AcDbEntity
  8
Ebene_1
 62
7
100
AcDbLine
 10
10.196525
 20
31.903390
 30
0.0
 11
8.979963
 21
30.908470
 31
0.0
  0
LINE
  5
165
100
AcDbEntity
  8
Ebene_1
 62
7
100
AcDbLine
 10
8.979963
 20
30.908470
 30
0.0
 11
7.827300
 21
29.833410
 31
0.0
  0
LINE
  5
166
100
AcDbEntity
  8
Ebene_1
 62
7
100
AcDbLine
 10
7.827300
 20
29.833410
 30
0.0
 11
6.742945
 21
28.680780
 31
0.0
  0
LINE
  5
167
100
AcDbEntity
  8
Ebene_1
 62
7
100
AcDbLine
 10
6.742945
 20
28.680780
 30
0.0
 11
5.731307
 21
27.453110
 31
0.0
  0
LINE
  5
168
100
AcDbEntity
  8
Ebene_1
 62
7
100
AcDbLine
 10
5.731307
 20
27.453110
 30
0.0
 11
4.796794
 21
26.152950
 31
0.0
  0
LINE
  5
169
100
AcDbEntity
  8
Ebene_1
 62
7
100
AcDbLine
 10
4.796794
 20
26.152950
 30
0.0
 11
3.943817
 21
24.782850
 31
0.0
  0
LINE
  5
16a
100
AcDbEntity
  8
Ebene_1
 62
7
100
AcDbLine
 10
3.943817
 20
24.782850
 30
0.0
 11
14.434226
 21
18.726150
 31
0.0
  0
LINE
  5
16b
100
AcDbEntity
  8
Ebene_1
 62
7
100
AcDbLine
 10
14.434226
 20
18.726150
 30
0.0
 11
15.326817
 21
20.061110
 31
0.0
  0
LINE
  5
16c
100
AcDbEntity
  8
Ebene_1
 62
7
100
AcDbLine
 10
15.326817
 20
20.061110
 30
0.0
 11
16.373600
 21
21.251330
 31
0.0
  0
LINE
  5
16d
100
AcDbEntity
  8
Ebene_1
 62
7
100
AcDbLine
 10
16.373600
 20
21.251330
 30
0.0
 11
17.556971
 21
22.286620
 31
0.0
  0
LINE
  5
16e
100
AcDbEntity
  8
Ebene_1
 62
7
100
AcDbLine
 10
17.556971
 20
22.286620
 30
0.0
 11
18.859325
 21
23.156810
 31
0.0
  0
LINE
  5
16f
100
AcDbEntity
  8
Ebene_1
 62
7
100
AcDbLine
 10
18.859325
 20
23.156810
 30
0.0
 11
20.263059
 21
23.851700
 31
0.0
  0
LINE
  5
170
100
AcDbEntity
  8
Ebene_1
 62
7
100
AcDbLine
 10
20.263059
 20
23.851700
 30
0.0
 11
21.750568
 21
24.361130
 31
0.0
  0
LINE
  5
171
100
AcDbEntity
  8
Ebene_1
 62
7
100
AcDbLine
 10
21.750568
 20
24.361130
 30
0.0
 11
23.304248
 21
24.674910
 31
0.0
  0
LINE
  5
172
100
AcDbEntity
  8
Ebene_1
 62
7
100
AcDbLine
 10
23.304248
 20
24.674910
 30
0.0
 11
24.906494
 21
24.782850
 31
0.0
  0
LINE
  5
173
100
AcDbEntity
  8
Ebene_1
 62
7
100
AcDbLine
 10
24.906494
 20
24.782850
 30
0.0
 11
26.508352
 21
24.674310
 31
0.0
  0
LINE
  5
174
100
AcDbEntity
  8
Ebene_1
 62
7
100
AcDbLine
 10
26.508352
 20
24.674310
 30
0.0
 11
28.061593
 21
24.360050
 31
0.0
  0
LINE
  5
175
100
AcDbEntity
  8
Ebene_1
 62
7
100
AcDbLine
 10
28.061593
 20
24.360050
 30
0.0
 11
29.548626
 21
23.850240
 31
0.0
  0
LINE
  5
176
100
AcDbEntity
  8
Ebene_1
 62
7
100
AcDbLine
 10
29.548626
 20
23.850240
 30
0.0
 11
30.951860
 21
23.155060
 31
0.0
  0
LINE
  5
177
100
AcDbEntity
  8
Ebene_1
 62
7
100
AcDbLine
 10
30.951860
 20
23.155060
 30
0.0
 11
32.253707
 21
22.284690
 31
0.0
  0
LINE
  5
178
100
AcDbEntity
  8
Ebene_1
 62
7
100
AcDbLine
 10
32.253707
 20
22.284690
 30
0.0
 11
33.436574
 21
21.249320
 31
0.0
  0
LINE
  5
179
100
AcDbEntity
  8
Ebene_1
 62
7
100
AcDbLine
 10
33.436574
 20
21.249320
 30
0.0
 11
34.482873
 21
20.059120
 31
0.0
  0
LINE
  5
17a
100
AcDbEntity
  8
Ebene_1
 62
7
100
AcDbLine
 10
34.482873
 20
20.059120
 30
0.0
 11
35.375012
 21
18.724270
 31
0.0
  0
LINE
  5
17b
100
AcDbEntity
  8
Ebene_1
 62
7
100
AcDbLine
 10
35.375012
 20
18.724270
 30
0.0
 11
45.869170
 21
24.782850
 31
0.0
  0
LINE
  5
17c
100
AcDbEntity
  8
Ebene_1
 62
7
100
AcDbLine
 10
45.869170
 20
24.782850
 30
0.0
 11
45.016193
 21
26.152950
 31
0.0
  0
LINE
  5
17d
100
AcDbEntity
  8
Ebene_1
 62
7
100
AcDbLine
 10
45.016193
 20
26.152950
 30
0.0
 11
44.081680
 21
27.453110
 31
0.0
  0
LINE
  5
17e
100
AcDbEntity
  8
Ebene_1
 62
7
100
AcDbLine
 10
44.081680
 20
27.453110
 30
0.0
 11
43.070042
 21
28.680780
 31
0.0
  0
LINE
  5
17f
100
AcDbEntity
  8
Ebene_1
 62
7
100
AcDbLine
 10
43.070042
 20
28.680780
 30
0.0
 11
41.985687
 21
29.833410
 31
0.0
  0
LINE
  5
180
100
AcDbEntity
  8
Ebene_1
 62
7
100
AcDbLine
 10
41.985687
 20
29.833410
 30
0.0
 11
40.833024
 21
30.908470
 31
0.0
  0
LINE
  5
181
100
AcDbEntity
  8
Ebene_1
 62
7
100
AcDbLine
 10
40.833024
 20
30.908470
 30
0.0
 11
39.616463
 21
31.903390
 31
0.0
  0
LINE
  5
182
100
AcDbEntity
  8
Ebene_1
 62
7
100
AcDbLine
 10
39.616463
 20
31.903390
 30
0.0
 11
38.340414
 21
32.815650
 31
0.0
  0
LINE
  5
183
100
AcDbEntity
  8
Ebene_1
 62
7
100
AcDbLine
 10
38.340414
 20
32.815650
 30
0.0
 11
37.009284
 21
33.642680
 31
0.0
  0
LINE
  5
184
100
AcDbEntity
  8
Ebene_1
 62
7
100
AcDbLine
 10
37.009284
 20
33.642680
 30
0.0
 11
35.627485
 21
34.381950
 31
0.0
  0
LINE
  5
185
100
AcDbEntity
  8
Ebene_1
 62
7
100
AcDbLine
 10
35.627485
 20
34.381950
 30
0.0
 11
34.199424
 21
35.030920
 31
0.0
  0
LINE
  5
186
100
AcDbEntity
  8
Ebene_1
 62
7
100
AcDbLine
 10
34.199424
 20
35.030920
 30
0.0
 11
32.729511
 21
35.587020
 31
0.0
  0
LINE
  5
187
100
AcDbEntity
  8
Ebene_1
 62
7
100
AcDbLine
 10
32.729511
 20
35.587020
 30
0.0
 11
31.222156
 21
36.047730
 31
0.0
  0
LINE
  5
188
100
AcDbEntity
  8
Ebene_1
 62
7
100
AcDbLine
 10
31.222156
 20
36.047730
 30
0.0
 11
29.681767
 21
36.410490
 31
0.0
  0
LINE
  5
189
100
AcDbEntity
  8
Ebene_1
 62
7
100
AcDbLine
 10
29.681767
 20
36.410490
 30
0.0
 11
28.112754
 21
36.672760
 31
0.0
  0
LINE
  5
18a
100
AcDbEntity
  8
Ebene_1
 62
7
100
AcDbLine
 10
28.112754
 20
36.672760
 30
0.0
 11
26.519527
 21
36.831990
 31
0.0
  0
LINE
  5
18b
100
AcDbEntity
  8
Ebene_1
 62
7
100
AcDbLine
 10
26.519527
 20
36.831990
 30
0.0
 11
24.906494
 21
36.885590
 31
0.0
  0
LINE
  5
18c
100
AcDbEntity
  8
Ebene_1
 62
7
100
AcDbLine
 10
24.906494
 20
36.885590
 30
0.0
 11
24.906494
 21
36.885590
 31
0.0
  0
LINE
  5
18d
100
AcDbEntity
  8
Ebene_1
 62
7
100
AcDbLine
 10
13.908871
 20
31.545045
 30
0.0
 11
14.538290
 21
31.545045
 31
0.0
  0
LINE
  5
18e
100
AcDbEntity
  8
Ebene_1
 62
7
100
AcDbLine
 10
14.538290
 20
31.545045
 30
0.0
 11
14.538290
 21
29.486255
 31
0.0
  0
LINE
  5
18f
100
AcDbEntity
  8
Ebene_1
 62
7
100
AcDbLine
 10
14.538290
 20
29.486255
 30
0.0
 11
16.494759
 21
31.545045
 31
0.0
  0
LINE
  5
190
100
AcDbEntity
  8
Ebene_1
 62
7
100
AcDbLine
 10
16.494759
 20
31.545045
 30
0.0
 11
17.229598
 21
31.545045
 31
0.0
  0
LINE
  5
191
100
AcDbEntity
  8
Ebene_1
 62
7
100
AcDbLine
 10
17.229598
 20
31.545045
 30
0.0
 11
15.428158
 21
29.653685
 31
0.0
  0
LINE
  5
192
100
AcDbEntity
  8
Ebene_1
 62
7
100
AcDbLine
 10
15.428158
 20
29.653685
 30
0.0
 11
17.282308
 21
26.915870
 31
0.0
  0
LINE
  5
193
100
AcDbEntity
  8
Ebene_1
 62
7
100
AcDbLine
 10
17.282308
 20
26.915870
 30
0.0
 11
16.525765
 21
26.915870
 31
0.0
  0
LINE
  5
194
100
AcDbEntity
  8
Ebene_1
 62
7
100
AcDbLine
 10
16.525765
 20
26.915870
 30
0.0
 11
15.015780
 21
29.235110
 31
0.0
  0
LINE
  5
195
100
AcDbEntity
  8
Ebene_1
 62
7
100
AcDbLine
 10
15.015780
 20
29.235110
 30
0.0
 11
14.538290
 21
28.726610
 31
0.0
  0
LINE
  5
196
100
AcDbEntity
  8
Ebene_1
 62
7
100
AcDbLine
 10
14.538290
 20
28.726610
 30
0.0
 11
14.538290
 21
26.915870
 31
0.0
  0
LINE
  5
197
100
AcDbEntity
  8
Ebene_1
 62
7
100
AcDbLine
 10
14.538290
 20
26.915870
 30
0.0
 11
13.908871
 21
26.915870
 31
0.0
  0
LINE
  5
198
100
AcDbEntity
  8
Ebene_1
 62
7
100
AcDbLine
 10
13.908871
 20
26.915870
 30
0.0
 11
13.908871
 21
31.545045
 31
0.0
  0
LINE
  5
199
100
AcDbEntity
  8
Ebene_1
 62
7
100
AcDbLine
 10
19.403109
 20
26.825955
 30
0.0
 11
18.683773
 21
26.946875
 31
0.0
  0
LINE
  5
19a
100
AcDbEntity
  8
Ebene_1
 62
7
100
AcDbLine
 10
18.683773
 20
26.946875
 30
0.0
 11
18.144271
 21
27.309645
 31
0.0
  0
LINE
  5
19b
100
AcDbEntity
  8
Ebene_1
 62
7
100
AcDbLine
 10
18.144271
 20
27.309645
 30
0.0
 11
17.803206
 21
27.883255
 31
0.0
  0
LINE
  5
19c
100
AcDbEntity
  8
Ebene_1
 62
7
100
AcDbLine
 10
17.803206
 20
27.883255
 30
0.0
 11
17.688485
 21
28.645995
 31
0.0
  0
LINE
  5
19d
100
AcDbEntity
  8
Ebene_1
 62
7
100
AcDbLine
 10
17.688485
 20
28.645995
 30
0.0
 11
17.806307
 21
29.411840
 31
0.0
  0
LINE
  5
19e
100
AcDbEntity
  8
Ebene_1
 62
7
100
AcDbLine
 10
17.806307
 20
29.411840
 30
0.0
 11
18.131869
 21
29.976150
 31
0.0
  0
LINE
  5
19f
100
AcDbEntity
  8
Ebene_1
 62
7
100
AcDbLine
 10
18.131869
 20
29.976150
 30
0.0
 11
18.377590
 21
30.194740
 31
0.0
  0
LINE
  5
1a0
100
AcDbEntity
  8
Ebene_1
 62
7
100
AcDbLine
 10
18.377590
 20
30.194740
 30
0.0
 11
18.662069
 21
30.348220
 31
0.0
  0
LINE
  5
1a1
100
AcDbEntity
  8
Ebene_1
 62
7
100
AcDbLine
 10
18.662069
 20
30.348220
 30
0.0
 11
19.316292
 21
30.472240
 31
0.0
  0
LINE
  5
1a2
100
AcDbEntity
  8
Ebene_1
 62
7
100
AcDbLine
 10
19.316292
 20
30.472240
 30
0.0
 11
19.924007
 21
30.357520
 31
0.0
  0
LINE
  5
1a3
100
AcDbEntity
  8
Ebene_1
 62
7
100
AcDbLine
 10
19.924007
 20
30.357520
 30
0.0
 11
20.373592
 21
30.025760
 31
0.0
  0
LINE
  5
1a4
100
AcDbEntity
  8
Ebene_1
 62
7
100
AcDbLine
 10
20.373592
 20
30.025760
 30
0.0
 11
20.655745
 21
29.498660
 31
0.0
  0
LINE
  5
1a5
100
AcDbEntity
  8
Ebene_1
 62
7
100
AcDbLine
 10
20.655745
 20
29.498660
 30
0.0
 11
20.754964
 21
28.794825
 31
0.0
  0
LINE
  5
1a6
100
AcDbEntity
  8
Ebene_1
 62
7
100
AcDbLine
 10
20.754964
 20
28.794825
 30
0.0
 11
20.754964
 21
28.515775
 31
0.0
  0
LINE
  5
1a7
100
AcDbEntity
  8
Ebene_1
 62
7
100
AcDbLine
 10
20.754964
 20
28.515775
 30
0.0
 11
18.283797
 21
28.515775
 31
0.0
  0
LINE
  5
1a8
100
AcDbEntity
  8
Ebene_1
 62
7
100
AcDbLine
 10
18.283797
 20
28.515775
 30
0.0
 11
18.283797
 21
28.497175
 31
0.0
  0
LINE
  5
1a9
100
AcDbEntity
  8
Ebene_1
 62
7
100
AcDbLine
 10
18.283797
 20
28.497175
 30
0.0
 11
18.358211
 21
27.994105
 31
0.0
  0
LINE
  5
1aa
100
AcDbEntity
  8
Ebene_1
 62
7
100
AcDbLine
 10
18.358211
 20
27.994105
 30
0.0
 11
18.581453
 21
27.619710
 31
0.0
  0
LINE
  5
1ab
100
AcDbEntity
  8
Ebene_1
 62
7
100
AcDbLine
 10
18.581453
 20
27.619710
 30
0.0
 11
18.925618
 21
27.390265
 31
0.0
  0
LINE
  5
1ac
100
AcDbEntity
  8
Ebene_1
 62
7
100
AcDbLine
 10
18.925618
 20
27.390265
 30
0.0
 11
19.412410
 21
27.309650
 31
0.0
  0
LINE
  5
1ad
100
AcDbEntity
  8
Ebene_1
 62
7
100
AcDbLine
 10
19.412410
 20
27.309650
 30
0.0
 11
19.986019
 21
27.396465
 31
0.0
  0
LINE
  5
1ae
100
AcDbEntity
  8
Ebene_1
 62
7
100
AcDbLine
 10
19.986019
 20
27.396465
 30
0.0
 11
20.621639
 21
27.660015
 31
0.0
  0
LINE
  5
1af
100
AcDbEntity
  8
Ebene_1
 62
7
100
AcDbLine
 10
20.621639
 20
27.660015
 30
0.0
 11
20.621639
 21
27.092610
 31
0.0
  0
LINE
  5
1b0
100
AcDbEntity
  8
Ebene_1
 62
7
100
AcDbLine
 10
20.621639
 20
27.092610
 30
0.0
 11
20.302278
 21
26.974785
 31
0.0
  0
LINE
  5
1b1
100
AcDbEntity
  8
Ebene_1
 62
7
100
AcDbLine
 10
20.302278
 20
26.974785
 30
0.0
 11
19.995320
 21
26.891070
 31
0.0
  0
LINE
  5
1b2
100
AcDbEntity
  8
Ebene_1
 62
7
100
AcDbLine
 10
19.995320
 20
26.891070
 30
0.0
 11
19.697664
 21
26.841470
 31
0.0
  0
LINE
  5
1b3
100
AcDbEntity
  8
Ebene_1
 62
7
100
AcDbLine
 10
19.697664
 20
26.841470
 30
0.0
 11
19.403109
 21
26.825970
 31
0.0
  0
LINE
  5
1b4
100
AcDbEntity
  8
Ebene_1
 62
7
100
AcDbLine
 10
19.403109
 20
26.825970
 30
0.0
 11
19.403109
 21
26.825955
 31
0.0
  0
LINE
  5
1b5
100
AcDbEntity
  8
Ebene_1
 62
7
100
AcDbLine
 10
20.184456
 20
28.962255
 30
0.0
 11
20.113143
 21
29.418045
 31
0.0
  0
LINE
  5
1b6
100
AcDbEntity
  8
Ebene_1
 62
7
100
AcDbLine
 10
20.113143
 20
29.418045
 30
0.0
 11
19.948812
 21
29.728100
 31
0.0
  0
LINE
  5
1b7
100
AcDbEntity
  8
Ebene_1
 62
7
100
AcDbLine
 10
19.948812
 20
29.728100
 30
0.0
 11
19.672860
 21
29.923440
 31
0.0
  0
LINE
  5
1b8
100
AcDbEntity
  8
Ebene_1
 62
7
100
AcDbLine
 10
19.672860
 20
29.923440
 30
0.0
 11
19.303890
 21
29.988550
 31
0.0
  0
LINE
  5
1b9
100
AcDbEntity
  8
Ebene_1
 62
7
100
AcDbLine
 10
19.303890
 20
29.988550
 30
0.0
 11
18.924068
 21
29.920335
 31
0.0
  0
LINE
  5
1ba
100
AcDbEntity
  8
Ebene_1
 62
7
100
AcDbLine
 10
18.924068
 20
29.920335
 30
0.0
 11
18.621761
 21
29.715700
 31
0.0
  0
LINE
  5
1bb
100
AcDbEntity
  8
Ebene_1
 62
7
100
AcDbLine
 10
18.621761
 20
29.715700
 30
0.0
 11
18.409371
 21
29.388585
 31
0.0
  0
LINE
  5
1bc
100
AcDbEntity
  8
Ebene_1
 62
7
100
AcDbLine
 10
18.409371
 20
29.388585
 30
0.0
 11
18.305501
 21
28.959155
 31
0.0
  0
LINE
  5
1bd
100
AcDbEntity
  8
Ebene_1
 62
7
100
AcDbLine
 10
18.305501
 20
28.959155
 30
0.0
 11
20.184456
 21
28.962155
 31
0.0
  0
LINE
  5
1be
100
AcDbEntity
  8
Ebene_1
 62
7
100
AcDbLine
 10
20.184456
 20
28.962155
 30
0.0
 11
20.184456
 21
28.962255
 31
0.0
  0
LINE
  5
1bf
100
AcDbEntity
  8
Ebene_1
 62
7
100
AcDbLine
 10
22.060310
 20
30.388525
 30
0.0
 11
22.578108
 21
30.388525
 31
0.0
  0
LINE
  5
1c0
100
AcDbEntity
  8
Ebene_1
 62
7
100
AcDbLine
 10
22.578108
 20
30.388525
 30
0.0
 11
22.633919
 21
29.709500
 31
0.0
  0
LINE
  5
1c1
100
AcDbEntity
  8
Ebene_1
 62
7
100
AcDbLine
 10
22.633919
 20
29.709500
 30
0.0
 11
22.816853
 21
30.035835
 31
0.0
  0
LINE
  5
1c2
100
AcDbEntity
  8
Ebene_1
 62
7
100
AcDbLine
 10
22.816853
 20
30.035835
 30
0.0
 11
23.074202
 21
30.276905
 31
0.0
  0
LINE
  5
1c3
100
AcDbEntity
  8
Ebene_1
 62
7
100
AcDbLine
 10
23.074202
 20
30.276905
 30
0.0
 11
23.394338
 21
30.423405
 31
0.0
  0
LINE
  5
1c4
100
AcDbEntity
  8
Ebene_1
 62
7
100
AcDbLine
 10
23.394338
 20
30.423405
 30
0.0
 11
23.771834
 21
30.472255
 31
0.0
  0
LINE
  5
1c5
100
AcDbEntity
  8
Ebene_1
 62
7
100
AcDbLine
 10
23.771834
 20
30.472255
 30
0.0
 11
24.168709
 21
30.419545
 31
0.0
  0
LINE
  5
1c6
100
AcDbEntity
  8
Ebene_1
 62
7
100
AcDbLine
 10
24.168709
 20
30.419545
 30
0.0
 11
24.348543
 21
30.351335
 31
0.0
  0
LINE
  5
1c7
100
AcDbEntity
  8
Ebene_1
 62
7
100
AcDbLine
 10
24.348543
 20
30.351335
 30
0.0
 11
24.519075
 21
30.255215
 31
0.0
  0
LINE
  5
1c8
100
AcDbEntity
  8
Ebene_1
 62
7
100
AcDbLine
 10
24.519075
 20
30.255215
 30
0.0
 11
24.519075
 21
29.672305
 31
0.0
  0
LINE
  5
1c9
100
AcDbEntity
  8
Ebene_1
 62
7
100
AcDbLine
 10
24.519075
 20
29.672305
 30
0.0
 11
24.147005
 21
29.880045
 31
0.0
  0
LINE
  5
1ca
100
AcDbEntity
  8
Ebene_1
 62
7
100
AcDbLine
 10
24.147005
 20
29.880045
 30
0.0
 11
23.728426
 21
29.945160
 31
0.0
  0
LINE
  5
1cb
100
AcDbEntity
  8
Ebene_1
 62
7
100
AcDbLine
 10
23.728426
 20
29.945160
 30
0.0
 11
23.260237
 21
29.861445
 31
0.0
  0
LINE
  5
1cc
100
AcDbEntity
  8
Ebene_1
 62
7
100
AcDbLine
 10
23.260237
 20
29.861445
 30
0.0
 11
22.916072
 21
29.610295
 31
0.0
  0
LINE
  5
1cd
100
AcDbEntity
  8
Ebene_1
 62
7
100
AcDbLine
 10
22.916072
 20
29.610295
 30
0.0
 11
22.704457
 21
29.202565
 31
0.0
  0
LINE
  5
1ce
100
AcDbEntity
  8
Ebene_1
 62
7
100
AcDbLine
 10
22.704457
 20
29.202565
 30
0.0
 11
22.633919
 21
28.642910
 31
0.0
  0
LINE
  5
1cf
100
AcDbEntity
  8
Ebene_1
 62
7
100
AcDbLine
 10
22.633919
 20
28.642910
 30
0.0
 11
22.633919
 21
26.915885
 31
0.0
  0
LINE
  5
1d0
100
AcDbEntity
  8
Ebene_1
 62
7
100
AcDbLine
 10
22.633919
 20
26.915885
 30
0.0
 11
22.060310
 21
26.915885
 31
0.0
  0
LINE
  5
1d1
100
AcDbEntity
  8
Ebene_1
 62
7
100
AcDbLine
 10
22.060310
 20
26.915885
 30
0.0
 11
22.060310
 21
30.388540
 31
0.0
  0
LINE
  5
1d2
100
AcDbEntity
  8
Ebene_1
 62
7
100
AcDbLine
 10
25.548469
 20
30.388525
 30
0.0
 11
26.063167
 21
30.388525
 31
0.0
  0
LINE
  5
1d3
100
AcDbEntity
  8
Ebene_1
 62
7
100
AcDbLine
 10
26.063167
 20
30.388525
 30
0.0
 11
26.118977
 21
29.867630
 31
0.0
  0
LINE
  5
1d4
100
AcDbEntity
  8
Ebene_1
 62
7
100
AcDbLine
 10
26.118977
 20
29.867630
 30
0.0
 11
26.299586
 21
30.131180
 31
0.0
  0
LINE
  5
1d5
100
AcDbEntity
  8
Ebene_1
 62
7
100
AcDbLine
 10
26.299586
 20
30.131180
 30
0.0
 11
26.531355
 21
30.320315
 31
0.0
  0
LINE
  5
1d6
100
AcDbEntity
  8
Ebene_1
 62
7
100
AcDbLine
 10
26.531355
 20
30.320315
 30
0.0
 11
26.813508
 21
30.434260
 31
0.0
  0
LINE
  5
1d7
100
AcDbEntity
  8
Ebene_1
 62
7
100
AcDbLine
 10
26.813508
 20
30.434260
 30
0.0
 11
27.145271
 21
30.472260
 31
0.0
  0
LINE
  5
1d8
100
AcDbEntity
  8
Ebene_1
 62
7
100
AcDbLine
 10
27.145271
 20
30.472260
 30
0.0
 11
27.619661
 21
30.382345
 31
0.0
  0
LINE
  5
1d9
100
AcDbEntity
  8
Ebene_1
 62
7
100
AcDbLine
 10
27.619661
 20
30.382345
 30
0.0
 11
27.942121
 21
30.124995
 31
0.0
  0
LINE
  5
1da
100
AcDbEntity
  8
Ebene_1
 62
7
100
AcDbLine
 10
27.942121
 20
30.124995
 30
0.0
 11
28.137458
 21
29.685490
 31
0.0
  0
LINE
  5
1db
100
AcDbEntity
  8
Ebene_1
 62
7
100
AcDbLine
 10
28.137458
 20
29.685490
 30
0.0
 11
28.202571
 21
29.067695
 31
0.0
  0
LINE
  5
1dc
100
AcDbEntity
  8
Ebene_1
 62
7
100
AcDbLine
 10
28.202571
 20
29.067695
 30
0.0
 11
28.202571
 21
26.915890
 31
0.0
  0
LINE
  5
1dd
100
AcDbEntity
  8
Ebene_1
 62
7
100
AcDbLine
 10
28.202571
 20
26.915890
 30
0.0
 11
27.628962
 21
26.915890
 31
0.0
  0
LINE
  5
1de
100
AcDbEntity
  8
Ebene_1
 62
7
100
AcDbLine
 10
27.628962
 20
26.915890
 30
0.0
 11
27.628962
 21
29.067695
 31
0.0
  0
LINE
  5
1df
100
AcDbEntity
  8
Ebene_1
 62
7
100
AcDbLine
 10
27.628962
 20
29.067695
 30
0.0
 11
27.587877
 21
29.473875
 31
0.0
  0
LINE
  5
1e0
100
AcDbEntity
  8
Ebene_1
 62
7
100
AcDbLine
 10
27.587877
 20
29.473875
 30
0.0
 11
27.464629
 21
29.756025
 31
0.0
  0
LINE
  5
1e1
100
AcDbEntity
  8
Ebene_1
 62
7
100
AcDbLine
 10
27.464629
 20
29.756025
 30
0.0
 11
27.253014
 21
29.921135
 31
0.0
  0
LINE
  5
1e2
100
AcDbEntity
  8
Ebene_1
 62
7
100
AcDbLine
 10
27.253014
 20
29.921135
 30
0.0
 11
26.946831
 21
29.976170
 31
0.0
  0
LINE
  5
1e3
100
AcDbEntity
  8
Ebene_1
 62
7
100
AcDbLine
 10
26.946831
 20
29.976170
 30
0.0
 11
26.590264
 21
29.904855
 31
0.0
  0
LINE
  5
1e4
100
AcDbEntity
  8
Ebene_1
 62
7
100
AcDbLine
 10
26.590264
 20
29.904855
 30
0.0
 11
26.336016
 21
29.694015
 31
0.0
  0
LINE
  5
1e5
100
AcDbEntity
  8
Ebene_1
 62
7
100
AcDbLine
 10
26.336016
 20
29.694015
 30
0.0
 11
26.173235
 21
29.349075
 31
0.0
  0
LINE
  5
1e6
100
AcDbEntity
  8
Ebene_1
 62
7
100
AcDbLine
 10
26.173235
 20
29.349075
 30
0.0
 11
26.118975
 21
28.878560
 31
0.0
  0
LINE
  5
1e7
100
AcDbEntity
  8
Ebene_1
 62
7
100
AcDbLine
 10
26.118975
 20
28.878560
 30
0.0
 11
26.118975
 21
26.915890
 31
0.0
  0
LINE
  5
1e8
100
AcDbEntity
  8
Ebene_1
 62
7
100
AcDbLine
 10
26.118975
 20
26.915890
 30
0.0
 11
25.548467
 21
26.915890
 31
0.0
  0
LINE
  5
1e9
100
AcDbEntity
  8
Ebene_1
 62
7
100
AcDbLine
 10
25.548467
 20
26.915890
 30
0.0
 11
25.548467
 21
30.388545
 31
0.0
  0
LINE
  5
1ea
100
AcDbEntity
  8
Ebene_1
 62
7
100
AcDbLine
 10
30.862873
 20
26.825955
 30
0.0
 11
30.143537
 21
26.946875
 31
0.0
  0
LINE
  5
1eb
100
AcDbEntity
  8
Ebene_1
 62
7
100
AcDbLine
 10
30.143537
 20
26.946875
 30
0.0
 11
29.604035
 21
27.309645
 31
0.0
  0
LINE
  5
1ec
100
AcDbEntity
  8
Ebene_1
 62
7
100
AcDbLine
 10
29.604035
 20
27.309645
 30
0.0
 11
29.262971
 21
27.883255
 31
0.0
  0
LINE
  5
1ed
100
AcDbEntity
  8
Ebene_1
 62
7
100
AcDbLine
 10
29.262971
 20
27.883255
 30
0.0
 11
29.148249
 21
28.645995
 31
0.0
  0
LINE
  5
1ee
100
AcDbEntity
  8
Ebene_1
 62
7
100
AcDbLine
 10
29.148249
 20
28.645995
 30
0.0
 11
29.266071
 21
29.411840
 31
0.0
  0
LINE
  5
1ef
100
AcDbEntity
  8
Ebene_1
 62
7
100
AcDbLine
 10
29.266071
 20
29.411840
 30
0.0
 11
29.591633
 21
29.976150
 31
0.0
  0
LINE
  5
1f0
100
AcDbEntity
  8
Ebene_1
 62
7
100
AcDbLine
 10
29.591633
 20
29.976150
 30
0.0
 11
29.837354
 21
30.194740
 31
0.0
  0
LINE
  5
1f1
100
AcDbEntity
  8
Ebene_1
 62
7
100
AcDbLine
 10
29.837354
 20
30.194740
 30
0.0
 11
30.121833
 21
30.348220
 31
0.0
  0
LINE
  5
1f2
100
AcDbEntity
  8
Ebene_1
 62
7
100
AcDbLine
 10
30.121833
 20
30.348220
 30
0.0
 11
30.776057
 21
30.472240
 31
0.0
  0
LINE
  5
1f3
100
AcDbEntity
  8
Ebene_1
 62
7
100
AcDbLine
 10
30.776057
 20
30.472240
 30
0.0
 11
31.383771
 21
30.357520
 31
0.0
  0
LINE
  5
1f4
100
AcDbEntity
  8
Ebene_1
 62
7
100
AcDbLine
 10
31.383771
 20
30.357520
 30
0.0
 11
31.833356
 21
30.025760
 31
0.0
  0
LINE
  5
1f5
100
AcDbEntity
  8
Ebene_1
 62
7
100
AcDbLine
 10
31.833356
 20
30.025760
 30
0.0
 11
32.115510
 21
29.498660
 31
0.0
  0
LINE
  5
1f6
100
AcDbEntity
  8
Ebene_1
 62
7
100
AcDbLine
 10
32.115510
 20
29.498660
 30
0.0
 11
32.214728
 21
28.794825
 31
0.0
  0
LINE
  5
1f7
100
AcDbEntity
  8
Ebene_1
 62
7
100
AcDbLine
 10
32.214728
 20
28.794825
 30
0.0
 11
32.214728
 21
28.515775
 31
0.0
  0
LINE
  5
1f8
100
AcDbEntity
  8
Ebene_1
 62
7
100
AcDbLine
 10
32.214728
 20
28.515775
 30
0.0
 11
29.743562
 21
28.515775
 31
0.0
  0
LINE
  5
1f9
100
AcDbEntity
  8
Ebene_1
 62
7
100
AcDbLine
 10
29.743562
 20
28.515775
 30
0.0
 11
29.743562
 21
28.497175
 31
0.0
  0
LINE
  5
1fa
100
AcDbEntity
  8
Ebene_1
 62
7
100
AcDbLine
 10
29.743562
 20
28.497175
 30
0.0
 11
29.817976
 21
27.994105
 31
0.0
  0
LINE
  5
1fb
100
AcDbEntity
  8
Ebene_1
 62
7
100
AcDbLine
 10
29.817976
 20
27.994105
 30
0.0
 11
30.041218
 21
27.619710
 31
0.0
  0
LINE
  5
1fc
100
AcDbEntity
  8
Ebene_1
 62
7
100
AcDbLine
 10
30.041218
 20
27.619710
 30
0.0
 11
30.385383
 21
27.390265
 31
0.0
  0
LINE
  5
1fd
100
AcDbEntity
  8
Ebene_1
 62
7
100
AcDbLine
 10
30.385383
 20
27.390265
 30
0.0
 11
30.872175
 21
27.309650
 31
0.0
  0
LINE
  5
1fe
100
AcDbEntity
  8
Ebene_1
 62
7
100
AcDbLine
 10
30.872175
 20
27.309650
 30
0.0
 11
31.445783
 21
27.396465
 31
0.0
  0
LINE
  5
1ff
100
AcDbEntity
  8
Ebene_1
 62
7
100
AcDbLine
 10
31.445783
 20
27.396465
 30
0.0
 11
32.081403
 21
27.660015
 31
0.0
  0
LINE
  5
200
100
AcDbEntity
  8
Ebene_1
 62
7
100
AcDbLine
 10
32.081403
 20
27.660015
 30
0.0
 11
32.081403
 21
27.092610
 31
0.0
  0
LINE
  5
201
100
AcDbEntity
  8
Ebene_1
 62
7
100
AcDbLine
 10
32.081403
 20
27.092610
 30
0.0
 11
31.762043
 21
26.974785
 31
0.0
  0
LINE
  5
202
100
AcDbEntity
  8
Ebene_1
 62
7
100
AcDbLine
 10
31.762043
 20
26.974785
 30
0.0
 11
31.455085
 21
26.891070
 31
0.0
  0
LINE
  5
203
100
AcDbEntity
  8
Ebene_1
 62
7
100
AcDbLine
 10
31.455085
 20
26.891070
 30
0.0
 11
31.157429
 21
26.841470
 31
0.0
  0
LINE
  5
204
100
AcDbEntity
  8
Ebene_1
 62
7
100
AcDbLine
 10
31.157429
 20
26.841470
 30
0.0
 11
30.862873
 21
26.825970
 31
0.0
  0
LINE
  5
205
100
AcDbEntity
  8
Ebene_1
 62
7
100
AcDbLine
 10
30.862873
 20
26.825970
 30
0.0
 11
30.862873
 21
26.825955
 31
0.0
  0
LINE
  5
206
100
AcDbEntity
  8
Ebene_1
 62
7
100
AcDbLine
 10
31.644221
 20
28.962255
 30
0.0
 11
31.572907
 21
29.418045
 31
0.0
  0
LINE
  5
207
100
AcDbEntity
  8
Ebene_1
 62
7
100
AcDbLine
 10
31.572907
 20
29.418045
 30
0.0
 11
31.408576
 21
29.728100
 31
0.0
  0
LINE
  5
208
100
AcDbEntity
  8
Ebene_1
 62
7
100
AcDbLine
 10
31.408576
 20
29.728100
 30
0.0
 11
31.132624
 21
29.923440
 31
0.0
  0
LINE
  5
209
100
AcDbEntity
  8
Ebene_1
 62
7
100
AcDbLine
 10
31.132624
 20
29.923440
 30
0.0
 11
30.763654
 21
29.988550
 31
0.0
  0
LINE
  5
20a
100
AcDbEntity
  8
Ebene_1
 62
7
100
AcDbLine
 10
30.763654
 20
29.988550
 30
0.0
 11
30.383833
 21
29.920335
 31
0.0
  0
LINE
  5
20b
100
AcDbEntity
  8
Ebene_1
 62
7
100
AcDbLine
 10
30.383833
 20
29.920335
 30
0.0
 11
30.081526
 21
29.715700
 31
0.0
  0
LINE
  5
20c
100
AcDbEntity
  8
Ebene_1
 62
7
100
AcDbLine
 10
30.081526
 20
29.715700
 30
0.0
 11
29.869135
 21
29.388585
 31
0.0
  0
LINE
  5
20d
100
AcDbEntity
  8
Ebene_1
 62
7
100
AcDbLine
 10
29.869135
 20
29.388585
 30
0.0
 11
29.765266
 21
28.959155
 31
0.0
  0
LINE
  5
20e
100
AcDbEntity
  8
Ebene_1
 62
7
100
AcDbLine
 10
29.765266
 20
28.959155
 30
0.0
 11
31.644221
 21
28.962155
 31
0.0
  0
LINE
  5
20f
100
AcDbEntity
  8
Ebene_1
 62
7
100
AcDbLine
 10
31.644221
 20
28.962155
 30
0.0
 11
31.644221
 21
28.962255
 31
0.0
  0
LINE
  5
210
100
AcDbEntity
  8
Ebene_1
 62
7
100
AcDbLine
 10
35.129279
 20
26.891065
 30
0.0
 11
34.682795
 21
26.968580
 31
0.0
  0
LINE
  5
211
100
AcDbEntity
  8
Ebene_1
 62
7
100
AcDbLine
 10
34.682795
 20
26.968580
 30
0.0
 11
34.338630
 21
27.219730
 31
0.0
  0
LINE
  5
212
100
AcDbEntity
  8
Ebene_1
 62
7
100
AcDbLine
 10
34.338630
 20
27.219730
 30
0.0
 11
34.127015
 21
27.616605
 31
0.0
  0
LINE
  5
213
100
AcDbEntity
  8
Ebene_1
 62
7
100
AcDbLine
 10
34.127015
 20
27.616605
 30
0.0
 11
34.056476
 21
28.149905
 31
0.0
  0
LINE
  5
214
100
AcDbEntity
  8
Ebene_1
 62
7
100
AcDbLine
 10
34.056476
 20
28.149905
 30
0.0
 11
34.056476
 21
31.293895
 31
0.0
  0
LINE
  5
215
100
AcDbEntity
  8
Ebene_1
 62
7
100
AcDbLine
 10
34.056476
 20
31.293895
 30
0.0
 11
33.141804
 21
31.293895
 31
0.0
  0
LINE
  5
216
100
AcDbEntity
  8
Ebene_1
 62
7
100
AcDbLine
 10
33.141804
 20
31.293895
 30
0.0
 11
33.141804
 21
31.740380
 31
0.0
  0
LINE
  5
217
100
AcDbEntity
  8
Ebene_1
 62
7
100
AcDbLine
 10
33.141804
 20
31.740380
 30
0.0
 11
34.626984
 21
31.740380
 31
0.0
  0
LINE
  5
218
100
AcDbEntity
  8
Ebene_1
 62
7
100
AcDbLine
 10
34.626984
 20
31.740380
 30
0.0
 11
34.626984
 21
28.149905
 31
0.0
  0
LINE
  5
219
100
AcDbEntity
  8
Ebene_1
 62
7
100
AcDbLine
 10
34.626984
 20
28.149905
 30
0.0
 11
34.662639
 21
27.811165
 31
0.0
  0
LINE
  5
21a
100
AcDbEntity
  8
Ebene_1
 62
7
100
AcDbLine
 10
34.662639
 20
27.811165
 30
0.0
 11
34.769609
 21
27.570095
 31
0.0
  0
LINE
  5
21b
100
AcDbEntity
  8
Ebene_1
 62
7
100
AcDbLine
 10
34.769609
 20
27.570095
 30
0.0
 11
34.946343
 21
27.421265
 31
0.0
  0
LINE
  5
21c
100
AcDbEntity
  8
Ebene_1
 62
7
100
AcDbLine
 10
34.946343
 20
27.421265
 30
0.0
 11
35.185088
 21
27.374765
 31
0.0
  0
LINE
  5
21d
100
AcDbEntity
  8
Ebene_1
 62
7
100
AcDbLine
 10
35.185088
 20
27.374765
 30
0.0
 11
35.851714
 21
27.374765
 31
0.0
  0
LINE
  5
21e
100
AcDbEntity
  8
Ebene_1
 62
7
100
AcDbLine
 10
35.851714
 20
27.374765
 30
0.0
 11
35.851714
 21
26.891075
 31
0.0
  0
LINE
  5
21f
100
AcDbEntity
  8
Ebene_1
 62
7
100
AcDbLine
 10
35.851714
 20
26.891075
 30
0.0
 11
35.129277
 21
26.891075
 31
0.0
  0
LINE
  5
220
100
AcDbEntity
  8
Ebene_1
 62
7
100
AcDbLine
 10
35.129277
 20
26.891075
 30
0.0
 11
35.129277
 21
26.891075
 31
0.0
  0
LINE
  5
221
100
AcDbEntity
  8
Ebene_1
 62
7
100
AcDbLine
 10
35.129277
 20
26.891075
 30
0.0
 11
35.129277
 21
26.891065
 31
0.0
  0
LINE
  5
222
100
AcDbEntity
  8
Ebene_1
 62
7
100
AcDbLine
 10
23.935820
 20
48.975860
 30
0.0
 11
21.205590
 21
48.799740
 31
0.0
  0
LINE
  5
223
100
AcDbEntity
  8
Ebene_1
 62
7
100
AcDbLine
 10
21.205590
 20
48.799740
 30
0.0
 11
18.507780
 21
48.420560
 31
0.0
  0
LINE
  5
224
100
AcDbEntity
  8
Ebene_1
 62
7
100
AcDbLine
 10
18.507780
 20
48.420560
 30
0.0
 11
15.853271
 21
47.842030
 31
0.0
  0
LINE
  5
225
100
AcDbEntity
  8
Ebene_1
 62
7
100
AcDbLine
 10
15.853271
 20
47.842030
 30
0.0
 11
13.252945
 21
47.067820
 31
0.0
  0
LINE
  5
226
100
AcDbEntity
  8
Ebene_1
 62
7
100
AcDbLine
 10
13.252945
 20
47.067820
 30
0.0
 11
10.717682
 21
46.101610
 31
0.0
  0
LINE
  5
227
100
AcDbEntity
  8
Ebene_1
 62
7
100
AcDbLine
 10
10.717682
 20
46.101610
 30
0.0
 11
8.258363
 21
44.947110
 31
0.0
  0
LINE
  5
228
100
AcDbEntity
  8
Ebene_1
 62
7
100
AcDbLine
 10
8.258363
 20
44.947110
 30
0.0
 11
5.885871
 21
43.608000
 31
0.0
  0
LINE
  5
229
100
AcDbEntity
  8
Ebene_1
 62
7
100
AcDbLine
 10
5.885871
 20
43.608000
 30
0.0
 11
3.611087
 21
42.087950
 31
0.0
  0
LINE
  5
22a
100
AcDbEntity
  8
Ebene_1
 62
7
100
AcDbLine
 10
3.611087
 20
42.087950
 30
0.0
 11
10.721021
 21
32.269260
 31
0.0
  0
LINE
  5
22b
100
AcDbEntity
  8
Ebene_1
 62
7
100
AcDbLine
 10
10.721021
 20
32.269260
 30
0.0
 11
12.305722
 21
33.326870
 31
0.0
  0
LINE
  5
22c
100
AcDbEntity
  8
Ebene_1
 62
7
100
AcDbLine
 10
12.305722
 20
33.326870
 30
0.0
 11
13.960857
 21
34.252580
 31
0.0
  0
LINE
  5
22d
100
AcDbEntity
  8
Ebene_1
 62
7
100
AcDbLine
 10
13.960857
 20
34.252580
 30
0.0
 11
15.678135
 21
35.043680
 31
0.0
  0
LINE
  5
22e
100
AcDbEntity
  8
Ebene_1
 62
7
100
AcDbLine
 10
15.678135
 20
35.043680
 30
0.0
 11
17.449266
 21
35.697470
 31
0.0
  0
LINE
  5
22f
100
AcDbEntity
  8
Ebene_1
 62
7
100
AcDbLine
 10
17.449266
 20
35.697470
 30
0.0
 11
19.265957
 21
36.211250
 31
0.0
  0
LINE
  5
230
100
AcDbEntity
  8
Ebene_1
 62
7
100
AcDbLine
 10
19.265957
 20
36.211250
 30
0.0
 11
21.119920
 21
36.582330
 31
0.0
  0
LINE
  5
231
100
AcDbEntity
  8
Ebene_1
 62
7
100
AcDbLine
 10
21.119920
 20
36.582330
 30
0.0
 11
23.002862
 21
36.808010
 31
0.0
  0
LINE
  5
232
100
AcDbEntity
  8
Ebene_1
 62
7
100
AcDbLine
 10
23.002862
 20
36.808010
 30
0.0
 11
24.906494
 21
36.885610
 31
0.0
  0
LINE
  5
233
100
AcDbEntity
  8
Ebene_1
 62
7
100
AcDbLine
 10
24.906494
 20
36.885610
 30
0.0
 11
26.829250
 21
36.805610
 31
0.0
  0
LINE
  5
234
100
AcDbEntity
  8
Ebene_1
 62
7
100
AcDbLine
 10
26.829250
 20
36.805610
 30
0.0
 11
28.730623
 21
36.574570
 31
0.0
  0
LINE
  5
235
100
AcDbEntity
  8
Ebene_1
 62
7
100
AcDbLine
 10
28.730623
 20
36.574570
 30
0.0
 11
30.602082
 21
36.195280
 31
0.0
  0
LINE
  5
236
100
AcDbEntity
  8
Ebene_1
 62
7
100
AcDbLine
 10
30.602082
 20
36.195280
 30
0.0
 11
32.435094
 21
35.670560
 31
0.0
  0
LINE
  5
237
100
AcDbEntity
  8
Ebene_1
 62
7
100
AcDbLine
 10
32.435094
 20
35.670560
 30
0.0
 11
34.221128
 21
35.003220
 31
0.0
  0
LINE
  5
238
100
AcDbEntity
  8
Ebene_1
 62
7
100
AcDbLine
 10
34.221128
 20
35.003220
 30
0.0
 11
35.951653
 21
34.196070
 31
0.0
  0
LINE
  5
239
100
AcDbEntity
  8
Ebene_1
 62
7
100
AcDbLine
 10
35.951653
 20
34.196070
 30
0.0
 11
37.618137
 21
33.251920
 31
0.0
  0
LINE
  5
23a
100
AcDbEntity
  8
Ebene_1
 62
7
100
AcDbLine
 10
37.618137
 20
33.251920
 30
0.0
 11
39.212049
 21
32.173570
 31
0.0
  0
LINE
  5
23b
100
AcDbEntity
  8
Ebene_1
 62
7
100
AcDbLine
 10
39.212049
 20
32.173570
 30
0.0
 11
46.388282
 21
41.952230
 31
0.0
  0
LINE
  5
23c
100
AcDbEntity
  8
Ebene_1
 62
7
100
AcDbLine
 10
46.388282
 20
41.952230
 30
0.0
 11
43.888534
 21
43.631840
 31
0.0
  0
LINE
  5
23d
100
AcDbEntity
  8
Ebene_1
 62
7
100
AcDbLine
 10
43.888534
 20
43.631840
 30
0.0
 11
41.271960
 21
45.091520
 31
0.0
  0
LINE
  5
23e
100
AcDbEntity
  8
Ebene_1
 62
7
100
AcDbLine
 10
41.271960
 20
45.091520
 30
0.0
 11
38.553143
 21
46.326730
 31
0.0
  0
LINE
  5
23f
100
AcDbEntity
  8
Ebene_1
 62
7
100
AcDbLine
 10
38.553143
 20
46.326730
 30
0.0
 11
35.746666
 21
47.332890
 31
0.0
  0
LINE
  5
240
100
AcDbEntity
  8
Ebene_1
 62
7
100
AcDbLine
 10
35.746666
 20
47.332890
 30
0.0
 11
32.867111
 21
48.105440
 31
0.0
  0
LINE
  5
241
100
AcDbEntity
  8
Ebene_1
 62
7
100
AcDbLine
 10
32.867111
 20
48.105440
 30
0.0
 11
29.929064
 21
48.639830
 31
0.0
  0
LINE
  5
242
100
AcDbEntity
  8
Ebene_1
 62
7
100
AcDbLine
 10
29.929064
 20
48.639830
 30
0.0
 11
26.947105
 21
48.931490
 31
0.0
  0
LINE
  5
243
100
AcDbEntity
  8
Ebene_1
 62
7
100
AcDbLine
 10
26.947105
 20
48.931490
 30
0.0
 11
23.935820
 21
48.975890
 31
0.0
  0
LINE
  5
244
100
AcDbEntity
  8
Ebene_1
 62
7
100
AcDbLine
 10
23.935820
 20
48.975890
 30
0.0
 11
23.935820
 21
48.975890
 31
0.0
  0
LINE
  5
245
100
AcDbEntity
  8
Ebene_1
 62
7
100
AcDbLine
 10
8.644709
 20
44.422120
 30
0.0
 11
9.233820
 21
44.422120
 31
0.0
  0
LINE
  5
246
100
AcDbEntity
  8
Ebene_1
 62
7
100
AcDbLine
 10
9.233820
 20
44.422120
 30
0.0
 11
6.796760
 21
39.203835
 31
0.0
  0
LINE
  5
247
100
AcDbEntity
  8
Ebene_1
 62
7
100
AcDbLine
 10
6.796760
 20
39.203835
 30
0.0
 11
6.204548
 21
39.203835
 31
0.0
  0
LINE
  5
248
100
AcDbEntity
  8
Ebene_1
 62
7
100
AcDbLine
 10
6.204548
 20
39.203835
 30
0.0
 11
8.644709
 21
44.422120
 31
0.0
  0
LINE
  5
249
100
AcDbEntity
  8
Ebene_1
 62
7
100
AcDbLine
 10
11.363922
 20
39.703030
 30
0.0
 11
10.901160
 21
39.790620
 31
0.0
  0
LINE
  5
24a
100
AcDbEntity
  8
Ebene_1
 62
7
100
AcDbLine
 10
10.901160
 20
39.790620
 30
0.0
 11
10.573273
 21
40.053395
 31
0.0
  0
LINE
  5
24b
100
AcDbEntity
  8
Ebene_1
 62
7
100
AcDbLine
 10
10.573273
 20
40.053395
 30
0.0
 11
10.377936
 21
40.490580
 31
0.0
  0
LINE
  5
24c
100
AcDbEntity
  8
Ebene_1
 62
7
100
AcDbLine
 10
10.377936
 20
40.490580
 30
0.0
 11
10.312824
 21
41.107595
 31
0.0
  0
LINE
  5
24d
100
AcDbEntity
  8
Ebene_1
 62
7
100
AcDbLine
 10
10.312824
 20
41.107595
 30
0.0
 11
10.312824
 21
43.259400
 31
0.0
  0
LINE
  5
24e
100
AcDbEntity
  8
Ebene_1
 62
7
100
AcDbLine
 10
10.312824
 20
43.259400
 30
0.0
 11
10.883332
 21
43.259400
 31
0.0
  0
LINE
  5
24f
100
AcDbEntity
  8
Ebene_1
 62
7
100
AcDbLine
 10
10.883332
 20
43.259400
 30
0.0
 11
10.883332
 21
41.107595
 31
0.0
  0
LINE
  5
250
100
AcDbEntity
  8
Ebene_1
 62
7
100
AcDbLine
 10
10.883332
 20
41.107595
 30
0.0
 11
10.925192
 21
40.699870
 31
0.0
  0
LINE
  5
251
100
AcDbEntity
  8
Ebene_1
 62
7
100
AcDbLine
 10
10.925192
 20
40.699870
 30
0.0
 11
11.050765
 21
40.419265
 31
0.0
  0
LINE
  5
252
100
AcDbEntity
  8
Ebene_1
 62
7
100
AcDbLine
 10
11.050765
 20
40.419265
 30
0.0
 11
11.252303
 21
40.254935
 31
0.0
  0
LINE
  5
253
100
AcDbEntity
  8
Ebene_1
 62
7
100
AcDbLine
 10
11.252303
 20
40.254935
 30
0.0
 11
11.562362
 21
40.199120
 31
0.0
  0
LINE
  5
254
100
AcDbEntity
  8
Ebene_1
 62
7
100
AcDbLine
 10
11.562362
 20
40.199120
 30
0.0
 11
11.918154
 21
40.270435
 31
0.0
  0
LINE
  5
255
100
AcDbEntity
  8
Ebene_1
 62
7
100
AcDbLine
 10
11.918154
 20
40.270435
 30
0.0
 11
12.179379
 21
40.484375
 31
0.0
  0
LINE
  5
256
100
AcDbEntity
  8
Ebene_1
 62
7
100
AcDbLine
 10
12.179379
 20
40.484375
 30
0.0
 11
12.339834
 21
40.828540
 31
0.0
  0
LINE
  5
257
100
AcDbEntity
  8
Ebene_1
 62
7
100
AcDbLine
 10
12.339834
 20
40.828540
 30
0.0
 11
12.393319
 21
41.296730
 31
0.0
  0
LINE
  5
258
100
AcDbEntity
  8
Ebene_1
 62
7
100
AcDbLine
 10
12.393319
 20
41.296730
 30
0.0
 11
12.393319
 21
43.259400
 31
0.0
  0
LINE
  5
259
100
AcDbEntity
  8
Ebene_1
 62
7
100
AcDbLine
 10
12.393319
 20
43.259400
 30
0.0
 11
12.966927
 21
43.259400
 31
0.0
  0
LINE
  5
25a
100
AcDbEntity
  8
Ebene_1
 62
7
100
AcDbLine
 10
12.966927
 20
43.259400
 30
0.0
 11
12.966927
 21
39.792945
 31
0.0
  0
LINE
  5
25b
100
AcDbEntity
  8
Ebene_1
 62
7
100
AcDbLine
 10
12.966927
 20
39.792945
 30
0.0
 11
12.449129
 21
39.792945
 31
0.0
  0
LINE
  5
25c
100
AcDbEntity
  8
Ebene_1
 62
7
100
AcDbLine
 10
12.449129
 20
39.792945
 30
0.0
 11
12.393319
 21
40.313845
 31
0.0
  0
LINE
  5
25d
100
AcDbEntity
  8
Ebene_1
 62
7
100
AcDbLine
 10
12.393319
 20
40.313845
 30
0.0
 11
12.212710
 21
40.047970
 31
0.0
  0
LINE
  5
25e
100
AcDbEntity
  8
Ebene_1
 62
7
100
AcDbLine
 10
12.212710
 20
40.047970
 30
0.0
 11
11.980941
 21
39.858060
 31
0.0
  0
LINE
  5
25f
100
AcDbEntity
  8
Ebene_1
 62
7
100
AcDbLine
 10
11.980941
 20
39.858060
 30
0.0
 11
11.694912
 21
39.741790
 31
0.0
  0
LINE
  5
260
100
AcDbEntity
  8
Ebene_1
 62
7
100
AcDbLine
 10
11.694912
 20
39.741790
 30
0.0
 11
11.363924
 21
39.703040
 31
0.0
  0
LINE
  5
261
100
AcDbEntity
  8
Ebene_1
 62
7
100
AcDbLine
 10
11.363924
 20
39.703040
 30
0.0
 11
11.363924
 21
39.703040
 31
0.0
  0
LINE
  5
262
100
AcDbEntity
  8
Ebene_1
 62
7
100
AcDbLine
 10
15.357477
 20
39.703030
 30
0.0
 11
15.075323
 21
39.718530
 31
0.0
  0
LINE
  5
263
100
AcDbEntity
  8
Ebene_1
 62
7
100
AcDbLine
 10
15.075323
 20
39.718530
 30
0.0
 11
14.799371
 21
39.755730
 31
0.0
  0
LINE
  5
264
100
AcDbEntity
  8
Ebene_1
 62
7
100
AcDbLine
 10
14.799371
 20
39.755730
 30
0.0
 11
14.514117
 21
39.823940
 31
0.0
  0
LINE
  5
265
100
AcDbEntity
  8
Ebene_1
 62
7
100
AcDbLine
 10
14.514117
 20
39.823940
 30
0.0
 11
14.188556
 21
39.920060
 31
0.0
  0
LINE
  5
266
100
AcDbEntity
  8
Ebene_1
 62
7
100
AcDbLine
 10
14.188556
 20
39.920060
 30
0.0
 11
14.188556
 21
40.509170
 31
0.0
  0
LINE
  5
267
100
AcDbEntity
  8
Ebene_1
 62
7
100
AcDbLine
 10
14.188556
 20
40.509170
 30
0.0
 11
14.526520
 21
40.354140
 31
0.0
  0
LINE
  5
268
100
AcDbEntity
  8
Ebene_1
 62
7
100
AcDbLine
 10
14.526520
 20
40.354140
 30
0.0
 11
14.799371
 21
40.264225
 31
0.0
  0
LINE
  5
269
100
AcDbEntity
  8
Ebene_1
 62
7
100
AcDbLine
 10
14.799371
 20
40.264225
 30
0.0
 11
15.075323
 21
40.202215
 31
0.0
  0
LINE
  5
26a
100
AcDbEntity
  8
Ebene_1
 62
7
100
AcDbLine
 10
15.075323
 20
40.202215
 30
0.0
 11
15.351276
 21
40.180515
 31
0.0
  0
LINE
  5
26b
100
AcDbEntity
  8
Ebene_1
 62
7
100
AcDbLine
 10
15.351276
 20
40.180515
 30
0.0
 11
15.685364
 21
40.219265
 31
0.0
  0
LINE
  5
26c
100
AcDbEntity
  8
Ebene_1
 62
7
100
AcDbLine
 10
15.685364
 20
40.219265
 30
0.0
 11
15.937286
 21
40.335540
 31
0.0
  0
LINE
  5
26d
100
AcDbEntity
  8
Ebene_1
 62
7
100
AcDbLine
 10
15.937286
 20
40.335540
 30
0.0
 11
16.095416
 21
40.524675
 31
0.0
  0
LINE
  5
26e
100
AcDbEntity
  8
Ebene_1
 62
7
100
AcDbLine
 10
16.095416
 20
40.524675
 30
0.0
 11
16.145026
 21
40.744815
 31
0.0
  0
LINE
  5
26f
100
AcDbEntity
  8
Ebene_1
 62
7
100
AcDbLine
 10
16.145026
 20
40.744815
 30
0.0
 11
16.099291
 21
40.940925
 31
0.0
  0
LINE
  5
270
100
AcDbEntity
  8
Ebene_1
 62
7
100
AcDbLine
 10
16.099291
 20
40.940925
 30
0.0
 11
15.962090
 21
41.095180
 31
0.0
  0
LINE
  5
271
100
AcDbEntity
  8
Ebene_1
 62
7
100
AcDbLine
 10
15.962090
 20
41.095180
 30
0.0
 11
15.385381
 21
41.312225
 31
0.0
  0
LINE
  5
272
100
AcDbEntity
  8
Ebene_1
 62
7
100
AcDbLine
 10
15.385381
 20
41.312225
 30
0.0
 11
15.360576
 21
41.318425
 31
0.0
  0
LINE
  5
273
100
AcDbEntity
  8
Ebene_1
 62
7
100
AcDbLine
 10
15.360576
 20
41.318425
 30
0.0
 11
15.146636
 21
41.361825
 31
0.0
  0
LINE
  5
274
100
AcDbEntity
  8
Ebene_1
 62
7
100
AcDbLine
 10
15.146636
 20
41.361825
 30
0.0
 11
14.731157
 21
41.485850
 31
0.0
  0
LINE
  5
275
100
AcDbEntity
  8
Ebene_1
 62
7
100
AcDbLine
 10
14.731157
 20
41.485850
 30
0.0
 11
14.427300
 21
41.687390
 31
0.0
  0
LINE
  5
276
100
AcDbEntity
  8
Ebene_1
 62
7
100
AcDbLine
 10
14.427300
 20
41.687390
 30
0.0
 11
14.257543
 21
41.956365
 31
0.0
  0
LINE
  5
277
100
AcDbEntity
  8
Ebene_1
 62
7
100
AcDbLine
 10
14.257543
 20
41.956365
 30
0.0
 11
14.200957
 21
42.310605
 31
0.0
  0
LINE
  5
278
100
AcDbEntity
  8
Ebene_1
 62
7
100
AcDbLine
 10
14.200957
 20
42.310605
 30
0.0
 11
14.284673
 21
42.753990
 31
0.0
  0
LINE
  5
279
100
AcDbEntity
  8
Ebene_1
 62
7
100
AcDbLine
 10
14.284673
 20
42.753990
 30
0.0
 11
14.538921
 21
43.079550
 31
0.0
  0
LINE
  5
27a
100
AcDbEntity
  8
Ebene_1
 62
7
100
AcDbLine
 10
14.538921
 20
43.079550
 30
0.0
 11
14.960601
 21
43.284190
 31
0.0
  0
LINE
  5
27b
100
AcDbEntity
  8
Ebene_1
 62
7
100
AcDbLine
 10
14.960601
 20
43.284190
 30
0.0
 11
15.509404
 21
43.349300
 31
0.0
  0
LINE
  5
27c
100
AcDbEntity
  8
Ebene_1
 62
7
100
AcDbLine
 10
15.509404
 20
43.349300
 30
0.0
 11
15.776055
 21
43.336900
 31
0.0
  0
LINE
  5
27d
100
AcDbEntity
  8
Ebene_1
 62
7
100
AcDbLine
 10
15.776055
 20
43.336900
 30
0.0
 11
16.039605
 21
43.299700
 31
0.0
  0
LINE
  5
27e
100
AcDbEntity
  8
Ebene_1
 62
7
100
AcDbLine
 10
16.039605
 20
43.299700
 30
0.0
 11
16.284551
 21
43.234585
 31
0.0
  0
LINE
  5
27f
100
AcDbEntity
  8
Ebene_1
 62
7
100
AcDbLine
 10
16.284551
 20
43.234585
 30
0.0
 11
16.545000
 21
43.144670
 31
0.0
  0
LINE
  5
280
100
AcDbEntity
  8
Ebene_1
 62
7
100
AcDbLine
 10
16.545000
 20
43.144670
 30
0.0
 11
16.545000
 21
42.586565
 31
0.0
  0
LINE
  5
281
100
AcDbEntity
  8
Ebene_1
 62
7
100
AcDbLine
 10
16.545000
 20
42.586565
 30
0.0
 11
16.052007
 21
42.800505
 31
0.0
  0
LINE
  5
282
100
AcDbEntity
  8
Ebene_1
 62
7
100
AcDbLine
 10
16.052007
 20
42.800505
 30
0.0
 11
15.800860
 21
42.853215
 31
0.0
  0
LINE
  5
283
100
AcDbEntity
  8
Ebene_1
 62
7
100
AcDbLine
 10
15.800860
 20
42.853215
 30
0.0
 11
15.534209
 21
42.871815
 31
0.0
  0
LINE
  5
284
100
AcDbEntity
  8
Ebene_1
 62
7
100
AcDbLine
 10
15.534209
 20
42.871815
 30
0.0
 11
15.208648
 21
42.840815
 31
0.0
  0
LINE
  5
285
100
AcDbEntity
  8
Ebene_1
 62
7
100
AcDbLine
 10
15.208648
 20
42.840815
 30
0.0
 11
14.969903
 21
42.747800
 31
0.0
  0
LINE
  5
286
100
AcDbEntity
  8
Ebene_1
 62
7
100
AcDbLine
 10
14.969903
 20
42.747800
 30
0.0
 11
14.825725
 21
42.587345
 31
0.0
  0
LINE
  5
287
100
AcDbEntity
  8
Ebene_1
 62
7
100
AcDbLine
 10
14.825725
 20
42.587345
 30
0.0
 11
14.777665
 21
42.360225
 31
0.0
  0
LINE
  5
288
100
AcDbEntity
  8
Ebene_1
 62
7
100
AcDbLine
 10
14.777665
 20
42.360225
 30
0.0
 11
14.811770
 21
42.161790
 31
0.0
  0
LINE
  5
289
100
AcDbEntity
  8
Ebene_1
 62
7
100
AcDbLine
 10
14.811770
 20
42.161790
 30
0.0
 11
14.920291
 21
42.016060
 31
0.0
  0
LINE
  5
28a
100
AcDbEntity
  8
Ebene_1
 62
7
100
AcDbLine
 10
14.920291
 20
42.016060
 30
0.0
 11
15.155935
 21
41.904440
 31
0.0
  0
LINE
  5
28b
100
AcDbEntity
  8
Ebene_1
 62
7
100
AcDbLine
 10
15.155935
 20
41.904440
 30
0.0
 11
15.630325
 21
41.792820
 31
0.0
  0
LINE
  5
28c
100
AcDbEntity
  8
Ebene_1
 62
7
100
AcDbLine
 10
15.630325
 20
41.792820
 30
0.0
 11
15.859768
 21
41.749420
 31
0.0
  0
LINE
  5
28d
100
AcDbEntity
  8
Ebene_1
 62
7
100
AcDbLine
 10
15.859768
 20
41.749420
 30
0.0
 11
16.241140
 21
41.625395
 31
0.0
  0
LINE
  5
28e
100
AcDbEntity
  8
Ebene_1
 62
7
100
AcDbLine
 10
16.241140
 20
41.625395
 30
0.0
 11
16.504690
 21
41.426960
 31
0.0
  0
LINE
  5
28f
100
AcDbEntity
  8
Ebene_1
 62
7
100
AcDbLine
 10
16.504690
 20
41.426960
 30
0.0
 11
16.667470
 21
41.149460
 31
0.0
  0
LINE
  5
290
100
AcDbEntity
  8
Ebene_1
 62
7
100
AcDbLine
 10
16.667470
 20
41.149460
 30
0.0
 11
16.721731
 21
40.794440
 31
0.0
  0
LINE
  5
291
100
AcDbEntity
  8
Ebene_1
 62
7
100
AcDbLine
 10
16.721731
 20
40.794440
 30
0.0
 11
16.625613
 21
40.329350
 31
0.0
  0
LINE
  5
292
100
AcDbEntity
  8
Ebene_1
 62
7
100
AcDbLine
 10
16.625613
 20
40.329350
 30
0.0
 11
16.355862
 21
39.994490
 31
0.0
  0
LINE
  5
293
100
AcDbEntity
  8
Ebene_1
 62
7
100
AcDbLine
 10
16.355862
 20
39.994490
 30
0.0
 11
15.912478
 21
39.774345
 31
0.0
  0
LINE
  5
294
100
AcDbEntity
  8
Ebene_1
 62
7
100
AcDbLine
 10
15.912478
 20
39.774345
 30
0.0
 11
15.357473
 21
39.703035
 31
0.0
  0
LINE
  5
295
100
AcDbEntity
  8
Ebene_1
 62
7
100
AcDbLine
 10
15.357473
 20
39.703035
 30
0.0
 11
15.357474
 21
39.703025
 31
0.0
  0
LINE
  5
296
100
AcDbEntity
  8
Ebene_1
 62
7
100
AcDbLine
 10
18.284430
 20
43.265600
 30
0.0
 11
18.802227
 21
43.265600
 31
0.0
  0
LINE
  5
297
100
AcDbEntity
  8
Ebene_1
 62
7
100
AcDbLine
 10
18.802227
 20
43.265600
 30
0.0
 11
18.858038
 21
42.586575
 31
0.0
  0
LINE
  5
298
100
AcDbEntity
  8
Ebene_1
 62
7
100
AcDbLine
 10
18.858038
 20
42.586575
 30
0.0
 11
19.040972
 21
42.912910
 31
0.0
  0
LINE
  5
299
100
AcDbEntity
  8
Ebene_1
 62
7
100
AcDbLine
 10
19.040972
 20
42.912910
 30
0.0
 11
19.298321
 21
43.153980
 31
0.0
  0
LINE
  5
29a
100
AcDbEntity
  8
Ebene_1
 62
7
100
AcDbLine
 10
19.298321
 20
43.153980
 30
0.0
 11
19.618457
 21
43.300480
 31
0.0
  0
LINE
  5
29b
100
AcDbEntity
  8
Ebene_1
 62
7
100
AcDbLine
 10
19.618457
 20
43.300480
 30
0.0
 11
19.995953
 21
43.349330
 31
0.0
  0
LINE
  5
29c
100
AcDbEntity
  8
Ebene_1
 62
7
100
AcDbLine
 10
19.995953
 20
43.349330
 30
0.0
 11
20.392828
 21
43.296620
 31
0.0
  0
LINE
  5
29d
100
AcDbEntity
  8
Ebene_1
 62
7
100
AcDbLine
 10
20.392828
 20
43.296620
 30
0.0
 11
20.572662
 21
43.228410
 31
0.0
  0
LINE
  5
29e
100
AcDbEntity
  8
Ebene_1
 62
7
100
AcDbLine
 10
20.572662
 20
43.228410
 30
0.0
 11
20.743194
 21
43.132290
 31
0.0
  0
LINE
  5
29f
100
AcDbEntity
  8
Ebene_1
 62
7
100
AcDbLine
 10
20.743194
 20
43.132290
 30
0.0
 11
20.743194
 21
42.549380
 31
0.0
  0
LINE
  5
2a0
100
AcDbEntity
  8
Ebene_1
 62
7
100
AcDbLine
 10
20.743194
 20
42.549380
 30
0.0
 11
20.371124
 21
42.757120
 31
0.0
  0
LINE
  5
2a1
100
AcDbEntity
  8
Ebene_1
 62
7
100
AcDbLine
 10
20.371124
 20
42.757120
 30
0.0
 11
19.952545
 21
42.822235
 31
0.0
  0
LINE
  5
2a2
100
AcDbEntity
  8
Ebene_1
 62
7
100
AcDbLine
 10
19.952545
 20
42.822235
 30
0.0
 11
19.484356
 21
42.738520
 31
0.0
  0
LINE
  5
2a3
100
AcDbEntity
  8
Ebene_1
 62
7
100
AcDbLine
 10
19.484356
 20
42.738520
 30
0.0
 11
19.140191
 21
42.487370
 31
0.0
  0
LINE
  5
2a4
100
AcDbEntity
  8
Ebene_1
 62
7
100
AcDbLine
 10
19.140191
 20
42.487370
 30
0.0
 11
18.928576
 21
42.079640
 31
0.0
  0
LINE
  5
2a5
100
AcDbEntity
  8
Ebene_1
 62
7
100
AcDbLine
 10
18.928576
 20
42.079640
 30
0.0
 11
18.858038
 21
41.519985
 31
0.0
  0
LINE
  5
2a6
100
AcDbEntity
  8
Ebene_1
 62
7
100
AcDbLine
 10
18.858038
 20
41.519985
 30
0.0
 11
18.858038
 21
39.792960
 31
0.0
  0
LINE
  5
2a7
100
AcDbEntity
  8
Ebene_1
 62
7
100
AcDbLine
 10
18.858038
 20
39.792960
 30
0.0
 11
18.284430
 21
39.792960
 31
0.0
  0
LINE
  5
2a8
100
AcDbEntity
  8
Ebene_1
 62
7
100
AcDbLine
 10
18.284430
 20
39.792960
 30
0.0
 11
18.284430
 21
43.265615
 31
0.0
  0
LINE
  5
2a9
100
AcDbEntity
  8
Ebene_1
 62
7
100
AcDbLine
 10
23.924395
 20
44.422120
 30
0.0
 11
24.513506
 21
44.422120
 31
0.0
  0
LINE
  5
2aa
100
AcDbEntity
  8
Ebene_1
 62
7
100
AcDbLine
 10
24.513506
 20
44.422120
 30
0.0
 11
22.076446
 21
39.203835
 31
0.0
  0
LINE
  5
2ab
100
AcDbEntity
  8
Ebene_1
 62
7
100
AcDbLine
 10
22.076446
 20
39.203835
 30
0.0
 11
21.484234
 21
39.203835
 31
0.0
  0
LINE
  5
2ac
100
AcDbEntity
  8
Ebene_1
 62
7
100
AcDbLine
 10
21.484234
 20
39.203835
 30
0.0
 11
23.924395
 21
44.422120
 31
0.0
  0
LINE
  5
2ad
100
AcDbEntity
  8
Ebene_1
 62
7
100
AcDbLine
 10
26.817241
 20
39.703030
 30
0.0
 11
26.535088
 21
39.718530
 31
0.0
  0
LINE
  5
2ae
100
AcDbEntity
  8
Ebene_1
 62
7
100
AcDbLine
 10
26.535088
 20
39.718530
 30
0.0
 11
26.259136
 21
39.755730
 31
0.0
  0
LINE
  5
2af
100
AcDbEntity
  8
Ebene_1
 62
7
100
AcDbLine
 10
26.259136
 20
39.755730
 30
0.0
 11
25.973882
 21
39.823940
 31
0.0
  0
LINE
  5
2b0
100
AcDbEntity
  8
Ebene_1
 62
7
100
AcDbLine
 10
25.973882
 20
39.823940
 30
0.0
 11
25.648320
 21
39.920060
 31
0.0
  0
LINE
  5
2b1
100
AcDbEntity
  8
Ebene_1
 62
7
100
AcDbLine
 10
25.648320
 20
39.920060
 30
0.0
 11
25.648320
 21
40.509170
 31
0.0
  0
LINE
  5
2b2
100
AcDbEntity
  8
Ebene_1
 62
7
100
AcDbLine
 10
25.648320
 20
40.509170
 30
0.0
 11
25.986284
 21
40.354140
 31
0.0
  0
LINE
  5
2b3
100
AcDbEntity
  8
Ebene_1
 62
7
100
AcDbLine
 10
25.986284
 20
40.354140
 30
0.0
 11
26.259136
 21
40.264225
 31
0.0
  0
LINE
  5
2b4
100
AcDbEntity
  8
Ebene_1
 62
7
100
AcDbLine
 10
26.259136
 20
40.264225
 30
0.0
 11
26.535088
 21
40.202215
 31
0.0
  0
LINE
  5
2b5
100
AcDbEntity
  8
Ebene_1
 62
7
100
AcDbLine
 10
26.535088
 20
40.202215
 30
0.0
 11
26.811040
 21
40.180515
 31
0.0
  0
LINE
  5
2b6
100
AcDbEntity
  8
Ebene_1
 62
7
100
AcDbLine
 10
26.811040
 20
40.180515
 30
0.0
 11
27.145128
 21
40.219265
 31
0.0
  0
LINE
  5
2b7
100
AcDbEntity
  8
Ebene_1
 62
7
100
AcDbLine
 10
27.145128
 20
40.219265
 30
0.0
 11
27.397051
 21
40.335540
 31
0.0
  0
LINE
  5
2b8
100
AcDbEntity
  8
Ebene_1
 62
7
100
AcDbLine
 10
27.397051
 20
40.335540
 30
0.0
 11
27.555181
 21
40.524675
 31
0.0
  0
LINE
  5
2b9
100
AcDbEntity
  8
Ebene_1
 62
7
100
AcDbLine
 10
27.555181
 20
40.524675
 30
0.0
 11
27.604791
 21
40.744815
 31
0.0
  0
LINE
  5
2ba
100
AcDbEntity
  8
Ebene_1
 62
7
100
AcDbLine
 10
27.604791
 20
40.744815
 30
0.0
 11
27.559056
 21
40.940925
 31
0.0
  0
LINE
  5
2bb
100
AcDbEntity
  8
Ebene_1
 62
7
100
AcDbLine
 10
27.559056
 20
40.940925
 30
0.0
 11
27.421855
 21
41.095180
 31
0.0
  0
LINE
  5
2bc
100
AcDbEntity
  8
Ebene_1
 62
7
100
AcDbLine
 10
27.421855
 20
41.095180
 30
0.0
 11
26.845146
 21
41.312225
 31
0.0
  0
LINE
  5
2bd
100
AcDbEntity
  8
Ebene_1
 62
7
100
AcDbLine
 10
26.845146
 20
41.312225
 30
0.0
 11
26.820341
 21
41.318425
 31
0.0
  0
LINE
  5
2be
100
AcDbEntity
  8
Ebene_1
 62
7
100
AcDbLine
 10
26.820341
 20
41.318425
 30
0.0
 11
26.606401
 21
41.361825
 31
0.0
  0
LINE
  5
2bf
100
AcDbEntity
  8
Ebene_1
 62
7
100
AcDbLine
 10
26.606401
 20
41.361825
 30
0.0
 11
26.190922
 21
41.485850
 31
0.0
  0
LINE
  5
2c0
100
AcDbEntity
  8
Ebene_1
 62
7
100
AcDbLine
 10
26.190922
 20
41.485850
 30
0.0
 11
25.887065
 21
41.687390
 31
0.0
  0
LINE
  5
2c1
100
AcDbEntity
  8
Ebene_1
 62
7
100
AcDbLine
 10
25.887065
 20
41.687390
 30
0.0
 11
25.717308
 21
41.956365
 31
0.0
  0
LINE
  5
2c2
100
AcDbEntity
  8
Ebene_1
 62
7
100
AcDbLine
 10
25.717308
 20
41.956365
 30
0.0
 11
25.660722
 21
42.310605
 31
0.0
  0
LINE
  5
2c3
100
AcDbEntity
  8
Ebene_1
 62
7
100
AcDbLine
 10
25.660722
 20
42.310605
 30
0.0
 11
25.744438
 21
42.753990
 31
0.0
  0
LINE
  5
2c4
100
AcDbEntity
  8
Ebene_1
 62
7
100
AcDbLine
 10
25.744438
 20
42.753990
 30
0.0
 11
25.998686
 21
43.079550
 31
0.0
  0
LINE
  5
2c5
100
AcDbEntity
  8
Ebene_1
 62
7
100
AcDbLine
 10
25.998686
 20
43.079550
 30
0.0
 11
26.420366
 21
43.284190
 31
0.0
  0
LINE
  5
2c6
100
AcDbEntity
  8
Ebene_1
 62
7
100
AcDbLine
 10
26.420366
 20
43.284190
 30
0.0
 11
26.969169
 21
43.349300
 31
0.0
  0
LINE
  5
2c7
100
AcDbEntity
  8
Ebene_1
 62
7
100
AcDbLine
 10
26.969169
 20
43.349300
 30
0.0
 11
27.235820
 21
43.336900
 31
0.0
  0
LINE
  5
2c8
100
AcDbEntity
  8
Ebene_1
 62
7
100
AcDbLine
 10
27.235820
 20
43.336900
 30
0.0
 11
27.499370
 21
43.299700
 31
0.0
  0
LINE
  5
2c9
100
AcDbEntity
  8
Ebene_1
 62
7
100
AcDbLine
 10
27.499370
 20
43.299700
 30
0.0
 11
27.744316
 21
43.234585
 31
0.0
  0
LINE
  5
2ca
100
AcDbEntity
  8
Ebene_1
 62
7
100
AcDbLine
 10
27.744316
 20
43.234585
 30
0.0
 11
28.004765
 21
43.144670
 31
0.0
  0
LINE
  5
2cb
100
AcDbEntity
  8
Ebene_1
 62
7
100
AcDbLine
 10
28.004765
 20
43.144670
 30
0.0
 11
28.004765
 21
42.586565
 31
0.0
  0
LINE
  5
2cc
100
AcDbEntity
  8
Ebene_1
 62
7
100
AcDbLine
 10
28.004765
 20
42.586565
 30
0.0
 11
27.511772
 21
42.800505
 31
0.0
  0
LINE
  5
2cd
100
AcDbEntity
  8
Ebene_1
 62
7
100
AcDbLine
 10
27.511772
 20
42.800505
 30
0.0
 11
27.260625
 21
42.853215
 31
0.0
  0
LINE
  5
2ce
100
AcDbEntity
  8
Ebene_1
 62
7
100
AcDbLine
 10
27.260625
 20
42.853215
 30
0.0
 11
26.993974
 21
42.871815
 31
0.0
  0
LINE
  5
2cf
100
AcDbEntity
  8
Ebene_1
 62
7
100
AcDbLine
 10
26.993974
 20
42.871815
 30
0.0
 11
26.668413
 21
42.840815
 31
0.0
  0
LINE
  5
2d0
100
AcDbEntity
  8
Ebene_1
 62
7
100
AcDbLine
 10
26.668413
 20
42.840815
 30
0.0
 11
26.429668
 21
42.747800
 31
0.0
  0
LINE
  5
2d1
100
AcDbEntity
  8
Ebene_1
 62
7
100
AcDbLine
 10
26.429668
 20
42.747800
 30
0.0
 11
26.285490
 21
42.587345
 31
0.0
  0
LINE
  5
2d2
100
AcDbEntity
  8
Ebene_1
 62
7
100
AcDbLine
 10
26.285490
 20
42.587345
 30
0.0
 11
26.237430
 21
42.360225
 31
0.0
  0
LINE
  5
2d3
100
AcDbEntity
  8
Ebene_1
 62
7
100
AcDbLine
 10
26.237430
 20
42.360225
 30
0.0
 11
26.271535
 21
42.161790
 31
0.0
  0
LINE
  5
2d4
100
AcDbEntity
  8
Ebene_1
 62
7
100
AcDbLine
 10
26.271535
 20
42.161790
 30
0.0
 11
26.380056
 21
42.016060
 31
0.0
  0
LINE
  5
2d5
100
AcDbEntity
  8
Ebene_1
 62
7
100
AcDbLine
 10
26.380056
 20
42.016060
 30
0.0
 11
26.615700
 21
41.904440
 31
0.0
  0
LINE
  5
2d6
100
AcDbEntity
  8
Ebene_1
 62
7
100
AcDbLine
 10
26.615700
 20
41.904440
 30
0.0
 11
27.090090
 21
41.792820
 31
0.0
  0
LINE
  5
2d7
100
AcDbEntity
  8
Ebene_1
 62
7
100
AcDbLine
 10
27.090090
 20
41.792820
 30
0.0
 11
27.319533
 21
41.749420
 31
0.0
  0
LINE
  5
2d8
100
AcDbEntity
  8
Ebene_1
 62
7
100
AcDbLine
 10
27.319533
 20
41.749420
 30
0.0
 11
27.700905
 21
41.625395
 31
0.0
  0
LINE
  5
2d9
100
AcDbEntity
  8
Ebene_1
 62
7
100
AcDbLine
 10
27.700905
 20
41.625395
 30
0.0
 11
27.964455
 21
41.426960
 31
0.0
  0
LINE
  5
2da
100
AcDbEntity
  8
Ebene_1
 62
7
100
AcDbLine
 10
27.964455
 20
41.426960
 30
0.0
 11
28.127235
 21
41.149460
 31
0.0
  0
LINE
  5
2db
100
AcDbEntity
  8
Ebene_1
 62
7
100
AcDbLine
 10
28.127235
 20
41.149460
 30
0.0
 11
28.181496
 21
40.794440
 31
0.0
  0
LINE
  5
2dc
100
AcDbEntity
  8
Ebene_1
 62
7
100
AcDbLine
 10
28.181496
 20
40.794440
 30
0.0
 11
28.085378
 21
40.329350
 31
0.0
  0
LINE
  5
2dd
100
AcDbEntity
  8
Ebene_1
 62
7
100
AcDbLine
 10
28.085378
 20
40.329350
 30
0.0
 11
27.815627
 21
39.994490
 31
0.0
  0
LINE
  5
2de
100
AcDbEntity
  8
Ebene_1
 62
7
100
AcDbLine
 10
27.815627
 20
39.994490
 30
0.0
 11
27.372243
 21
39.774345
 31
0.0
  0
LINE
  5
2df
100
AcDbEntity
  8
Ebene_1
 62
7
100
AcDbLine
 10
27.372243
 20
39.774345
 30
0.0
 11
26.817238
 21
39.703035
 31
0.0
  0
LINE
  5
2e0
100
AcDbEntity
  8
Ebene_1
 62
7
100
AcDbLine
 10
26.817238
 20
39.703035
 30
0.0
 11
26.817239
 21
39.703025
 31
0.0
  0
LINE
  5
2e1
100
AcDbEntity
  8
Ebene_1
 62
7
100
AcDbLine
 10
29.396928
 20
43.265600
 30
0.0
 11
29.914726
 21
43.265600
 31
0.0
  0
LINE
  5
2e2
100
AcDbEntity
  8
Ebene_1
 62
7
100
AcDbLine
 10
29.914726
 20
43.265600
 30
0.0
 11
29.970537
 21
42.822220
 31
0.0
  0
LINE
  5
2e3
100
AcDbEntity
  8
Ebene_1
 62
7
100
AcDbLine
 10
29.970537
 20
42.822220
 30
0.0
 11
30.138744
 21
43.050885
 31
0.0
  0
LINE
  5
2e4
100
AcDbEntity
  8
Ebene_1
 62
7
100
AcDbLine
 10
30.138744
 20
43.050885
 30
0.0
 11
30.351909
 21
43.215990
 31
0.0
  0
LINE
  5
2e5
100
AcDbEntity
  8
Ebene_1
 62
7
100
AcDbLine
 10
30.351909
 20
43.215990
 30
0.0
 11
30.900713
 21
43.349315
 31
0.0
  0
LINE
  5
2e6
100
AcDbEntity
  8
Ebene_1
 62
7
100
AcDbLine
 10
30.900713
 20
43.349315
 30
0.0
 11
31.458818
 21
43.228395
 31
0.0
  0
LINE
  5
2e7
100
AcDbEntity
  8
Ebene_1
 62
7
100
AcDbLine
 10
31.458818
 20
43.228395
 30
0.0
 11
31.886699
 21
42.862525
 31
0.0
  0
LINE
  5
2e8
100
AcDbEntity
  8
Ebene_1
 62
7
100
AcDbLine
 10
31.886699
 20
42.862525
 30
0.0
 11
32.153349
 21
42.279615
 31
0.0
  0
LINE
  5
2e9
100
AcDbEntity
  8
Ebene_1
 62
7
100
AcDbLine
 10
32.153349
 20
42.279615
 30
0.0
 11
32.243266
 21
41.519970
 31
0.0
  0
LINE
  5
2ea
100
AcDbEntity
  8
Ebene_1
 62
7
100
AcDbLine
 10
32.243266
 20
41.519970
 30
0.0
 11
32.153349
 21
40.760325
 31
0.0
  0
LINE
  5
2eb
100
AcDbEntity
  8
Ebene_1
 62
7
100
AcDbLine
 10
32.153349
 20
40.760325
 30
0.0
 11
31.883598
 21
40.186720
 31
0.0
  0
LINE
  5
2ec
100
AcDbEntity
  8
Ebene_1
 62
7
100
AcDbLine
 10
31.883598
 20
40.186720
 30
0.0
 11
31.457268
 21
39.823955
 31
0.0
  0
LINE
  5
2ed
100
AcDbEntity
  8
Ebene_1
 62
7
100
AcDbLine
 10
31.457268
 20
39.823955
 30
0.0
 11
30.897612
 21
39.703030
 31
0.0
  0
LINE
  5
2ee
100
AcDbEntity
  8
Ebene_1
 62
7
100
AcDbLine
 10
30.897612
 20
39.703030
 30
0.0
 11
30.590654
 21
39.740230
 31
0.0
  0
LINE
  5
2ef
100
AcDbEntity
  8
Ebene_1
 62
7
100
AcDbLine
 10
30.590654
 20
39.740230
 30
0.0
 11
30.345708
 21
39.839450
 31
0.0
  0
LINE
  5
2f0
100
AcDbEntity
  8
Ebene_1
 62
7
100
AcDbLine
 10
30.345708
 20
39.839450
 30
0.0
 11
30.130992
 21
40.006880
 31
0.0
  0
LINE
  5
2f1
100
AcDbEntity
  8
Ebene_1
 62
7
100
AcDbLine
 10
30.130992
 20
40.006880
 30
0.0
 11
29.970537
 21
40.230125
 31
0.0
  0
LINE
  5
2f2
100
AcDbEntity
  8
Ebene_1
 62
7
100
AcDbLine
 10
29.970537
 20
40.230125
 30
0.0
 11
29.970537
 21
38.472090
 31
0.0
  0
LINE
  5
2f3
100
AcDbEntity
  8
Ebene_1
 62
7
100
AcDbLine
 10
29.970537
 20
38.472090
 30
0.0
 11
29.396928
 21
38.472090
 31
0.0
  0
LINE
  5
2f4
100
AcDbEntity
  8
Ebene_1
 62
7
100
AcDbLine
 10
29.396928
 20
38.472090
 30
0.0
 11
29.396928
 21
43.265595
 31
0.0
  0
LINE
  5
2f5
100
AcDbEntity
  8
Ebene_1
 62
7
100
AcDbLine
 10
29.396928
 20
43.265595
 30
0.0
 11
29.396928
 21
43.265600
 31
0.0
  0
LINE
  5
2f6
100
AcDbEntity
  8
Ebene_1
 62
7
100
AcDbLine
 10
30.813896
 20
40.186720
 30
0.0
 11
31.177440
 21
40.271210
 31
0.0
  0
LINE
  5
2f7
100
AcDbEntity
  8
Ebene_1
 62
7
100
AcDbLine
 10
31.177440
 20
40.271210
 30
0.0
 11
31.437114
 21
40.524685
 31
0.0
  0
LINE
  5
2f8
100
AcDbEntity
  8
Ebene_1
 62
7
100
AcDbLine
 10
31.437114
 20
40.524685
 30
0.0
 11
31.592918
 21
40.944040
 31
0.0
  0
LINE
  5
2f9
100
AcDbEntity
  8
Ebene_1
 62
7
100
AcDbLine
 10
31.592918
 20
40.944040
 30
0.0
 11
31.644853
 21
41.526175
 31
0.0
  0
LINE
  5
2fa
100
AcDbEntity
  8
Ebene_1
 62
7
100
AcDbLine
 10
31.644853
 20
41.526175
 30
0.0
 11
31.592918
 21
42.108310
 31
0.0
  0
LINE
  5
2fb
100
AcDbEntity
  8
Ebene_1
 62
7
100
AcDbLine
 10
31.592918
 20
42.108310
 30
0.0
 11
31.437114
 21
42.527660
 31
0.0
  0
LINE
  5
2fc
100
AcDbEntity
  8
Ebene_1
 62
7
100
AcDbLine
 10
31.437114
 20
42.527660
 30
0.0
 11
31.177440
 21
42.781135
 31
0.0
  0
LINE
  5
2fd
100
AcDbEntity
  8
Ebene_1
 62
7
100
AcDbLine
 10
31.177440
 20
42.781135
 30
0.0
 11
30.813896
 21
42.865625
 31
0.0
  0
LINE
  5
2fe
100
AcDbEntity
  8
Ebene_1
 62
7
100
AcDbLine
 10
30.813896
 20
42.865625
 30
0.0
 11
30.448802
 21
42.781135
 31
0.0
  0
LINE
  5
2ff
100
AcDbEntity
  8
Ebene_1
 62
7
100
AcDbLine
 10
30.448802
 20
42.781135
 30
0.0
 11
30.184477
 21
42.527660
 31
0.0
  0
LINE
  5
300
100
AcDbEntity
  8
Ebene_1
 62
7
100
AcDbLine
 10
30.184477
 20
42.527660
 30
0.0
 11
30.024022
 21
42.106760
 31
0.0
  0
LINE
  5
301
100
AcDbEntity
  8
Ebene_1
 62
7
100
AcDbLine
 10
30.024022
 20
42.106760
 30
0.0
 11
29.970537
 21
41.526175
 31
0.0
  0
LINE
  5
302
100
AcDbEntity
  8
Ebene_1
 62
7
100
AcDbLine
 10
29.970537
 20
41.526175
 30
0.0
 11
30.024022
 21
40.946365
 31
0.0
  0
LINE
  5
303
100
AcDbEntity
  8
Ebene_1
 62
7
100
AcDbLine
 10
30.024022
 20
40.946365
 30
0.0
 11
30.184477
 21
40.527785
 31
0.0
  0
LINE
  5
304
100
AcDbEntity
  8
Ebene_1
 62
7
100
AcDbLine
 10
30.184477
 20
40.527785
 30
0.0
 11
30.448802
 21
40.271985
 31
0.0
  0
LINE
  5
305
100
AcDbEntity
  8
Ebene_1
 62
7
100
AcDbLine
 10
30.448802
 20
40.271985
 30
0.0
 11
30.813896
 21
40.186720
 31
0.0
  0
LINE
  5
306
100
AcDbEntity
  8
Ebene_1
 62
7
100
AcDbLine
 10
30.813896
 20
40.186720
 30
0.0
 11
30.813896
 21
40.186720
 31
0.0
  0
LINE
  5
307
100
AcDbEntity
  8
Ebene_1
 62
7
100
AcDbLine
 10
34.218339
 20
39.703030
 30
0.0
 11
33.735423
 21
39.778220
 31
0.0
  0
LINE
  5
308
100
AcDbEntity
  8
Ebene_1
 62
7
100
AcDbLine
 10
33.735423
 20
39.778220
 30
0.0
 11
33.365678
 21
40.003785
 31
0.0
  0
LINE
  5
309
100
AcDbEntity
  8
Ebene_1
 62
7
100
AcDbLine
 10
33.365678
 20
40.003785
 30
0.0
 11
33.133134
 21
40.338650
 31
0.0
  0
LINE
  5
30a
100
AcDbEntity
  8
Ebene_1
 62
7
100
AcDbLine
 10
33.133134
 20
40.338650
 30
0.0
 11
33.049418
 21
40.806835
 31
0.0
  0
LINE
  5
30b
100
AcDbEntity
  8
Ebene_1
 62
7
100
AcDbLine
 10
33.049418
 20
40.806835
 30
0.0
 11
33.147087
 21
41.313010
 31
0.0
  0
LINE
  5
30c
100
AcDbEntity
  8
Ebene_1
 62
7
100
AcDbLine
 10
33.147087
 20
41.313010
 30
0.0
 11
33.440092
 21
41.684305
 31
0.0
  0
LINE
  5
30d
100
AcDbEntity
  8
Ebene_1
 62
7
100
AcDbLine
 10
33.440092
 20
41.684305
 30
0.0
 11
33.917582
 21
41.909870
 31
0.0
  0
LINE
  5
30e
100
AcDbEntity
  8
Ebene_1
 62
7
100
AcDbLine
 10
33.917582
 20
41.909870
 30
0.0
 11
34.581108
 21
41.985060
 31
0.0
  0
LINE
  5
30f
100
AcDbEntity
  8
Ebene_1
 62
7
100
AcDbLine
 10
34.581108
 20
41.985060
 30
0.0
 11
35.346952
 21
41.985060
 31
0.0
  0
LINE
  5
310
100
AcDbEntity
  8
Ebene_1
 62
7
100
AcDbLine
 10
35.346952
 20
41.985060
 30
0.0
 11
35.346952
 21
42.074975
 31
0.0
  0
LINE
  5
311
100
AcDbEntity
  8
Ebene_1
 62
7
100
AcDbLine
 10
35.346952
 20
42.074975
 30
0.0
 11
35.294242
 21
42.428445
 31
0.0
  0
LINE
  5
312
100
AcDbEntity
  8
Ebene_1
 62
7
100
AcDbLine
 10
35.294242
 20
42.428445
 30
0.0
 11
35.136113
 21
42.679590
 31
0.0
  0
LINE
  5
313
100
AcDbEntity
  8
Ebene_1
 62
7
100
AcDbLine
 10
35.136113
 20
42.679590
 30
0.0
 11
34.866362
 21
42.819115
 31
0.0
  0
LINE
  5
314
100
AcDbEntity
  8
Ebene_1
 62
7
100
AcDbLine
 10
34.866362
 20
42.819115
 30
0.0
 11
34.475688
 21
42.865615
 31
0.0
  0
LINE
  5
315
100
AcDbEntity
  8
Ebene_1
 62
7
100
AcDbLine
 10
34.475688
 20
42.865615
 30
0.0
 11
33.883476
 21
42.781900
 31
0.0
  0
LINE
  5
316
100
AcDbEntity
  8
Ebene_1
 62
7
100
AcDbLine
 10
33.883476
 20
42.781900
 30
0.0
 11
33.303666
 21
42.536955
 31
0.0
  0
LINE
  5
317
100
AcDbEntity
  8
Ebene_1
 62
7
100
AcDbLine
 10
33.303666
 20
42.536955
 30
0.0
 11
33.303666
 21
43.107460
 31
0.0
  0
LINE
  5
318
100
AcDbEntity
  8
Ebene_1
 62
7
100
AcDbLine
 10
33.303666
 20
43.107460
 30
0.0
 11
33.592021
 21
43.206680
 31
0.0
  0
LINE
  5
319
100
AcDbEntity
  8
Ebene_1
 62
7
100
AcDbLine
 10
33.592021
 20
43.206680
 30
0.0
 11
33.911381
 21
43.290395
 31
0.0
  0
LINE
  5
31a
100
AcDbEntity
  8
Ebene_1
 62
7
100
AcDbLine
 10
33.911381
 20
43.290395
 30
0.0
 11
34.478788
 21
43.349305
 31
0.0
  0
LINE
  5
31b
100
AcDbEntity
  8
Ebene_1
 62
7
100
AcDbLine
 10
34.478788
 20
43.349305
 30
0.0
 11
34.878764
 21
43.315205
 31
0.0
  0
LINE
  5
31c
100
AcDbEntity
  8
Ebene_1
 62
7
100
AcDbLine
 10
34.878764
 20
43.315205
 30
0.0
 11
35.213627
 21
43.219090
 31
0.0
  0
LINE
  5
31d
100
AcDbEntity
  8
Ebene_1
 62
7
100
AcDbLine
 10
35.213627
 20
43.219090
 30
0.0
 11
35.483378
 21
43.060960
 31
0.0
  0
LINE
  5
31e
100
AcDbEntity
  8
Ebene_1
 62
7
100
AcDbLine
 10
35.483378
 20
43.060960
 30
0.0
 11
35.703520
 21
42.843915
 31
0.0
  0
LINE
  5
31f
100
AcDbEntity
  8
Ebene_1
 62
7
100
AcDbLine
 10
35.703520
 20
42.843915
 30
0.0
 11
35.808940
 21
42.654780
 31
0.0
  0
LINE
  5
320
100
AcDbEntity
  8
Ebene_1
 62
7
100
AcDbLine
 10
35.808940
 20
42.654780
 30
0.0
 11
35.870951
 21
42.459445
 31
0.0
  0
LINE
  5
321
100
AcDbEntity
  8
Ebene_1
 62
7
100
AcDbLine
 10
35.870951
 20
42.459445
 30
0.0
 11
35.920561
 21
41.774215
 31
0.0
  0
LINE
  5
322
100
AcDbEntity
  8
Ebene_1
 62
7
100
AcDbLine
 10
35.920561
 20
41.774215
 30
0.0
 11
35.920561
 21
41.064180
 31
0.0
  0
LINE
  5
323
100
AcDbEntity
  8
Ebene_1
 62
7
100
AcDbLine
 10
35.920561
 20
41.064180
 30
0.0
 11
35.929861
 21
40.747920
 31
0.0
  0
LINE
  5
324
100
AcDbEntity
  8
Ebene_1
 62
7
100
AcDbLine
 10
35.929861
 20
40.747920
 30
0.0
 11
35.948466
 21
40.493675
 31
0.0
  0
LINE
  5
325
100
AcDbEntity
  8
Ebene_1
 62
7
100
AcDbLine
 10
35.948466
 20
40.493675
 30
0.0
 11
35.982571
 21
40.248725
 31
0.0
  0
LINE
  5
326
100
AcDbEntity
  8
Ebene_1
 62
7
100
AcDbLine
 10
35.982571
 20
40.248725
 30
0.0
 11
36.019776
 21
40.075095
 31
0.0
  0
LINE
  5
327
100
AcDbEntity
  8
Ebene_1
 62
7
100
AcDbLine
 10
36.019776
 20
40.075095
 30
0.0
 11
36.069386
 21
39.892160
 31
0.0
  0
LINE
  5
328
100
AcDbEntity
  8
Ebene_1
 62
7
100
AcDbLine
 10
36.069386
 20
39.892160
 30
0.0
 11
36.103491
 21
39.792940
 31
0.0
  0
LINE
  5
329
100
AcDbEntity
  8
Ebene_1
 62
7
100
AcDbLine
 10
36.103491
 20
39.792940
 30
0.0
 11
35.529883
 21
39.792940
 31
0.0
  0
LINE
  5
32a
100
AcDbEntity
  8
Ebene_1
 62
7
100
AcDbLine
 10
35.529883
 20
39.792940
 30
0.0
 11
35.489578
 21
39.901460
 31
0.0
  0
LINE
  5
32b
100
AcDbEntity
  8
Ebene_1
 62
7
100
AcDbLine
 10
35.489578
 20
39.901460
 30
0.0
 11
35.446168
 21
40.062690
 31
0.0
  0
LINE
  5
32c
100
AcDbEntity
  8
Ebene_1
 62
7
100
AcDbLine
 10
35.446168
 20
40.062690
 30
0.0
 11
35.415163
 21
40.199115
 31
0.0
  0
LINE
  5
32d
100
AcDbEntity
  8
Ebene_1
 62
7
100
AcDbLine
 10
35.415163
 20
40.199115
 30
0.0
 11
35.396558
 21
40.320040
 31
0.0
  0
LINE
  5
32e
100
AcDbEntity
  8
Ebene_1
 62
7
100
AcDbLine
 10
35.396558
 20
40.320040
 30
0.0
 11
35.164014
 21
40.044090
 31
0.0
  0
LINE
  5
32f
100
AcDbEntity
  8
Ebene_1
 62
7
100
AcDbLine
 10
35.164014
 20
40.044090
 30
0.0
 11
34.888062
 21
39.851850
 31
0.0
  0
LINE
  5
330
100
AcDbEntity
  8
Ebene_1
 62
7
100
AcDbLine
 10
34.888062
 20
39.851850
 30
0.0
 11
34.571802
 21
39.740230
 31
0.0
  0
LINE
  5
331
100
AcDbEntity
  8
Ebene_1
 62
7
100
AcDbLine
 10
34.571802
 20
39.740230
 30
0.0
 11
34.218335
 21
39.703030
 31
0.0
  0
LINE
  5
332
100
AcDbEntity
  8
Ebene_1
 62
7
100
AcDbLine
 10
34.218335
 20
39.703030
 30
0.0
 11
34.218339
 21
39.703030
 31
0.0
  0
LINE
  5
333
100
AcDbEntity
  8
Ebene_1
 62
7
100
AcDbLine
 10
34.336161
 20
40.180520
 30
0.0
 11
34.754740
 21
40.262685
 31
0.0
  0
LINE
  5
334
100
AcDbEntity
  8
Ebene_1
 62
7
100
AcDbLine
 10
34.754740
 20
40.262685
 30
0.0
 11
35.074101
 21
40.509180
 31
0.0
  0
LINE
  5
335
100
AcDbEntity
  8
Ebene_1
 62
7
100
AcDbLine
 10
35.074101
 20
40.509180
 30
0.0
 11
35.278739
 21
40.902180
 31
0.0
  0
LINE
  5
336
100
AcDbEntity
  8
Ebene_1
 62
7
100
AcDbLine
 10
35.278739
 20
40.902180
 30
0.0
 11
35.346952
 21
41.411450
 31
0.0
  0
LINE
  5
337
100
AcDbEntity
  8
Ebene_1
 62
7
100
AcDbLine
 10
35.346952
 20
41.411450
 30
0.0
 11
35.346952
 21
41.538575
 31
0.0
  0
LINE
  5
338
100
AcDbEntity
  8
Ebene_1
 62
7
100
AcDbLine
 10
35.346952
 20
41.538575
 30
0.0
 11
34.624516
 21
41.538575
 31
0.0
  0
LINE
  5
339
100
AcDbEntity
  8
Ebene_1
 62
7
100
AcDbLine
 10
34.624516
 20
41.538575
 30
0.0
 11
34.188884
 21
41.495175
 31
0.0
  0
LINE
  5
33a
100
AcDbEntity
  8
Ebene_1
 62
7
100
AcDbLine
 10
34.188884
 20
41.495175
 30
0.0
 11
33.874174
 21
41.364950
 31
0.0
  0
LINE
  5
33b
100
AcDbEntity
  8
Ebene_1
 62
7
100
AcDbLine
 10
33.874174
 20
41.364950
 30
0.0
 11
33.678837
 21
41.141710
 31
0.0
  0
LINE
  5
33c
100
AcDbEntity
  8
Ebene_1
 62
7
100
AcDbLine
 10
33.678837
 20
41.141710
 30
0.0
 11
33.619926
 21
40.837855
 31
0.0
  0
LINE
  5
33d
100
AcDbEntity
  8
Ebene_1
 62
7
100
AcDbLine
 10
33.619926
 20
40.837855
 30
0.0
 11
33.669536
 21
40.555700
 31
0.0
  0
LINE
  5
33e
100
AcDbEntity
  8
Ebene_1
 62
7
100
AcDbLine
 10
33.669536
 20
40.555700
 30
0.0
 11
33.809063
 21
40.354160
 31
0.0
  0
LINE
  5
33f
100
AcDbEntity
  8
Ebene_1
 62
7
100
AcDbLine
 10
33.809063
 20
40.354160
 30
0.0
 11
34.026104
 21
40.227040
 31
0.0
  0
LINE
  5
340
100
AcDbEntity
  8
Ebene_1
 62
7
100
AcDbLine
 10
34.026104
 20
40.227040
 30
0.0
 11
34.336162
 21
40.180540
 31
0.0
  0
LINE
  5
341
100
AcDbEntity
  8
Ebene_1
 62
7
100
AcDbLine
 10
34.336162
 20
40.180540
 30
0.0
 11
34.336161
 21
40.180530
 31
0.0
  0
LINE
  5
342
100
AcDbEntity
  8
Ebene_1
 62
7
100
AcDbLine
 10
38.655277
 20
39.703030
 30
0.0
 11
37.948344
 21
39.823950
 31
0.0
  0
LINE
  5
343
100
AcDbEntity
  8
Ebene_1
 62
7
100
AcDbLine
 10
37.948344
 20
39.823950
 30
0.0
 11
37.408842
 21
40.186720
 31
0.0
  0
LINE
  5
344
100
AcDbEntity
  8
Ebene_1
 62
7
100
AcDbLine
 10
37.408842
 20
40.186720
 30
0.0
 11
37.067777
 21
40.763430
 31
0.0
  0
LINE
  5
345
100
AcDbEntity
  8
Ebene_1
 62
7
100
AcDbLine
 10
37.067777
 20
40.763430
 30
0.0
 11
36.956156
 21
41.526175
 31
0.0
  0
LINE
  5
346
100
AcDbEntity
  8
Ebene_1
 62
7
100
AcDbLine
 10
36.956156
 20
41.526175
 30
0.0
 11
37.073979
 21
42.304420
 31
0.0
  0
LINE
  5
347
100
AcDbEntity
  8
Ebene_1
 62
7
100
AcDbLine
 10
37.073979
 20
42.304420
 30
0.0
 11
37.411942
 21
42.868725
 31
0.0
  0
LINE
  5
348
100
AcDbEntity
  8
Ebene_1
 62
7
100
AcDbLine
 10
37.411942
 20
42.868725
 30
0.0
 11
37.954545
 21
43.228395
 31
0.0
  0
LINE
  5
349
100
AcDbEntity
  8
Ebene_1
 62
7
100
AcDbLine
 10
37.954545
 20
43.228395
 30
0.0
 11
38.658378
 21
43.349315
 31
0.0
  0
LINE
  5
34a
100
AcDbEntity
  8
Ebene_1
 62
7
100
AcDbLine
 10
38.658378
 20
43.349315
 30
0.0
 11
38.921928
 21
43.333815
 31
0.0
  0
LINE
  5
34b
100
AcDbEntity
  8
Ebene_1
 62
7
100
AcDbLine
 10
38.921928
 20
43.333815
 30
0.0
 11
39.160673
 21
43.284215
 31
0.0
  0
LINE
  5
34c
100
AcDbEntity
  8
Ebene_1
 62
7
100
AcDbLine
 10
39.160673
 20
43.284215
 30
0.0
 11
39.641263
 21
43.082675
 31
0.0
  0
LINE
  5
34d
100
AcDbEntity
  8
Ebene_1
 62
7
100
AcDbLine
 10
39.641263
 20
43.082675
 30
0.0
 11
39.641263
 21
42.484265
 31
0.0
  0
LINE
  5
34e
100
AcDbEntity
  8
Ebene_1
 62
7
100
AcDbLine
 10
39.641263
 20
42.484265
 30
0.0
 11
39.414921
 21
42.657895
 31
0.0
  0
LINE
  5
34f
100
AcDbEntity
  8
Ebene_1
 62
7
100
AcDbLine
 10
39.414921
 20
42.657895
 30
0.0
 11
39.188578
 21
42.775720
 31
0.0
  0
LINE
  5
350
100
AcDbEntity
  8
Ebene_1
 62
7
100
AcDbLine
 10
39.188578
 20
42.775720
 30
0.0
 11
38.673881
 21
42.865635
 31
0.0
  0
LINE
  5
351
100
AcDbEntity
  8
Ebene_1
 62
7
100
AcDbLine
 10
38.673881
 20
42.865635
 30
0.0
 11
38.197166
 21
42.778820
 31
0.0
  0
LINE
  5
352
100
AcDbEntity
  8
Ebene_1
 62
7
100
AcDbLine
 10
38.197166
 20
42.778820
 30
0.0
 11
37.846024
 21
42.518370
 31
0.0
  0
LINE
  5
353
100
AcDbEntity
  8
Ebene_1
 62
7
100
AcDbLine
 10
37.846024
 20
42.518370
 30
0.0
 11
37.629758
 21
42.095915
 31
0.0
  0
LINE
  5
354
100
AcDbEntity
  8
Ebene_1
 62
7
100
AcDbLine
 10
37.629758
 20
42.095915
 30
0.0
 11
37.557670
 21
41.529285
 31
0.0
  0
LINE
  5
355
100
AcDbEntity
  8
Ebene_1
 62
7
100
AcDbLine
 10
37.557670
 20
41.529285
 30
0.0
 11
37.622782
 21
40.977380
 31
0.0
  0
LINE
  5
356
100
AcDbEntity
  8
Ebene_1
 62
7
100
AcDbLine
 10
37.622782
 20
40.977380
 30
0.0
 11
37.846024
 21
40.537095
 31
0.0
  0
LINE
  5
357
100
AcDbEntity
  8
Ebene_1
 62
7
100
AcDbLine
 10
37.846024
 20
40.537095
 30
0.0
 11
38.201041
 21
40.274320
 31
0.0
  0
LINE
  5
358
100
AcDbEntity
  8
Ebene_1
 62
7
100
AcDbLine
 10
38.201041
 20
40.274320
 30
0.0
 11
38.683182
 21
40.186730
 31
0.0
  0
LINE
  5
359
100
AcDbEntity
  8
Ebene_1
 62
7
100
AcDbLine
 10
38.683182
 20
40.186730
 30
0.0
 11
38.965336
 21
40.211530
 31
0.0
  0
LINE
  5
35a
100
AcDbEntity
  8
Ebene_1
 62
7
100
AcDbLine
 10
38.965336
 20
40.211530
 30
0.0
 11
39.204081
 21
40.279740
 31
0.0
  0
LINE
  5
35b
100
AcDbEntity
  8
Ebene_1
 62
7
100
AcDbLine
 10
39.204081
 20
40.279740
 30
0.0
 11
39.442826
 21
40.400665
 31
0.0
  0
LINE
  5
35c
100
AcDbEntity
  8
Ebene_1
 62
7
100
AcDbLine
 10
39.442826
 20
40.400665
 30
0.0
 11
39.641263
 21
40.561895
 31
0.0
  0
LINE
  5
35d
100
AcDbEntity
  8
Ebene_1
 62
7
100
AcDbLine
 10
39.641263
 20
40.561895
 30
0.0
 11
39.641263
 21
39.969685
 31
0.0
  0
LINE
  5
35e
100
AcDbEntity
  8
Ebene_1
 62
7
100
AcDbLine
 10
39.641263
 20
39.969685
 30
0.0
 11
39.411820
 21
39.854960
 31
0.0
  0
LINE
  5
35f
100
AcDbEntity
  8
Ebene_1
 62
7
100
AcDbLine
 10
39.411820
 20
39.854960
 30
0.0
 11
39.169974
 21
39.768145
 31
0.0
  0
LINE
  5
360
100
AcDbEntity
  8
Ebene_1
 62
7
100
AcDbLine
 10
39.169974
 20
39.768145
 30
0.0
 11
38.931229
 21
39.721645
 31
0.0
  0
LINE
  5
361
100
AcDbEntity
  8
Ebene_1
 62
7
100
AcDbLine
 10
38.931229
 20
39.721645
 30
0.0
 11
38.655277
 21
39.703045
 31
0.0
  0
LINE
  5
362
100
AcDbEntity
  8
Ebene_1
 62
7
100
AcDbLine
 10
38.655277
 20
39.703045
 30
0.0
 11
38.655277
 21
39.703030
 31
0.0
  0
LINE
  5
363
100
AcDbEntity
  8
Ebene_1
 62
7
100
AcDbLine
 10
42.366680
 20
39.703030
 30
0.0
 11
41.647344
 21
39.823950
 31
0.0
  0
LINE
  5
364
100
AcDbEntity
  8
Ebene_1
 62
7
100
AcDbLine
 10
41.647344
 20
39.823950
 30
0.0
 11
41.107842
 21
40.186720
 31
0.0
  0
LINE
  5
365
100
AcDbEntity
  8
Ebene_1
 62
7
100
AcDbLine
 10
41.107842
 20
40.186720
 30
0.0
 11
40.766778
 21
40.760330
 31
0.0
  0
LINE
  5
366
100
AcDbEntity
  8
Ebene_1
 62
7
100
AcDbLine
 10
40.766778
 20
40.760330
 30
0.0
 11
40.652056
 21
41.523070
 31
0.0
  0
LINE
  5
367
100
AcDbEntity
  8
Ebene_1
 62
7
100
AcDbLine
 10
40.652056
 20
41.523070
 30
0.0
 11
40.769878
 21
42.288915
 31
0.0
  0
LINE
  5
368
100
AcDbEntity
  8
Ebene_1
 62
7
100
AcDbLine
 10
40.769878
 20
42.288915
 30
0.0
 11
41.095440
 21
42.853225
 31
0.0
  0
LINE
  5
369
100
AcDbEntity
  8
Ebene_1
 62
7
100
AcDbLine
 10
41.095440
 20
42.853225
 30
0.0
 11
41.341161
 21
43.071815
 31
0.0
  0
LINE
  5
36a
100
AcDbEntity
  8
Ebene_1
 62
7
100
AcDbLine
 10
41.341161
 20
43.071815
 30
0.0
 11
41.625640
 21
43.225295
 31
0.0
  0
LINE
  5
36b
100
AcDbEntity
  8
Ebene_1
 62
7
100
AcDbLine
 10
41.625640
 20
43.225295
 30
0.0
 11
42.279864
 21
43.349315
 31
0.0
  0
LINE
  5
36c
100
AcDbEntity
  8
Ebene_1
 62
7
100
AcDbLine
 10
42.279864
 20
43.349315
 30
0.0
 11
42.887578
 21
43.234595
 31
0.0
  0
LINE
  5
36d
100
AcDbEntity
  8
Ebene_1
 62
7
100
AcDbLine
 10
42.887578
 20
43.234595
 30
0.0
 11
43.337163
 21
42.902835
 31
0.0
  0
LINE
  5
36e
100
AcDbEntity
  8
Ebene_1
 62
7
100
AcDbLine
 10
43.337163
 20
42.902835
 30
0.0
 11
43.619317
 21
42.375735
 31
0.0
  0
LINE
  5
36f
100
AcDbEntity
  8
Ebene_1
 62
7
100
AcDbLine
 10
43.619317
 20
42.375735
 30
0.0
 11
43.718535
 21
41.671900
 31
0.0
  0
LINE
  5
370
100
AcDbEntity
  8
Ebene_1
 62
7
100
AcDbLine
 10
43.718535
 20
41.671900
 30
0.0
 11
43.718535
 21
41.392850
 31
0.0
  0
LINE
  5
371
100
AcDbEntity
  8
Ebene_1
 62
7
100
AcDbLine
 10
43.718535
 20
41.392850
 30
0.0
 11
41.247369
 21
41.392850
 31
0.0
  0
LINE
  5
372
100
AcDbEntity
  8
Ebene_1
 62
7
100
AcDbLine
 10
41.247369
 20
41.392850
 30
0.0
 11
41.247369
 21
41.374250
 31
0.0
  0
LINE
  5
373
100
AcDbEntity
  8
Ebene_1
 62
7
100
AcDbLine
 10
41.247369
 20
41.374250
 30
0.0
 11
41.321783
 21
40.871180
 31
0.0
  0
LINE
  5
374
100
AcDbEntity
  8
Ebene_1
 62
7
100
AcDbLine
 10
41.321783
 20
40.871180
 30
0.0
 11
41.545025
 21
40.496785
 31
0.0
  0
LINE
  5
375
100
AcDbEntity
  8
Ebene_1
 62
7
100
AcDbLine
 10
41.545025
 20
40.496785
 30
0.0
 11
41.889190
 21
40.267340
 31
0.0
  0
LINE
  5
376
100
AcDbEntity
  8
Ebene_1
 62
7
100
AcDbLine
 10
41.889190
 20
40.267340
 30
0.0
 11
42.375982
 21
40.186725
 31
0.0
  0
LINE
  5
377
100
AcDbEntity
  8
Ebene_1
 62
7
100
AcDbLine
 10
42.375982
 20
40.186725
 30
0.0
 11
42.949590
 21
40.273540
 31
0.0
  0
LINE
  5
378
100
AcDbEntity
  8
Ebene_1
 62
7
100
AcDbLine
 10
42.949590
 20
40.273540
 30
0.0
 11
43.585210
 21
40.537090
 31
0.0
  0
LINE
  5
379
100
AcDbEntity
  8
Ebene_1
 62
7
100
AcDbLine
 10
43.585210
 20
40.537090
 30
0.0
 11
43.585210
 21
39.969685
 31
0.0
  0
LINE
  5
37a
100
AcDbEntity
  8
Ebene_1
 62
7
100
AcDbLine
 10
43.585210
 20
39.969685
 30
0.0
 11
43.265850
 21
39.851860
 31
0.0
  0
LINE
  5
37b
100
AcDbEntity
  8
Ebene_1
 62
7
100
AcDbLine
 10
43.265850
 20
39.851860
 30
0.0
 11
42.958892
 21
39.768145
 31
0.0
  0
LINE
  5
37c
100
AcDbEntity
  8
Ebene_1
 62
7
100
AcDbLine
 10
42.958892
 20
39.768145
 30
0.0
 11
42.661236
 21
39.718545
 31
0.0
  0
LINE
  5
37d
100
AcDbEntity
  8
Ebene_1
 62
7
100
AcDbLine
 10
42.661236
 20
39.718545
 30
0.0
 11
42.366680
 21
39.703045
 31
0.0
  0
LINE
  5
37e
100
AcDbEntity
  8
Ebene_1
 62
7
100
AcDbLine
 10
42.366680
 20
39.703045
 30
0.0
 11
42.366680
 21
39.703030
 31
0.0
  0
LINE
  5
37f
100
AcDbEntity
  8
Ebene_1
 62
7
100
AcDbLine
 10
43.148028
 20
41.839330
 30
0.0
 11
43.076714
 21
42.295120
 31
0.0
  0
LINE
  5
380
100
AcDbEntity
  8
Ebene_1
 62
7
100
AcDbLine
 10
43.076714
 20
42.295120
 30
0.0
 11
42.912383
 21
42.605175
 31
0.0
  0
LINE
  5
381
100
AcDbEntity
  8
Ebene_1
 62
7
100
AcDbLine
 10
42.912383
 20
42.605175
 30
0.0
 11
42.636431
 21
42.800515
 31
0.0
  0
LINE
  5
382
100
AcDbEntity
  8
Ebene_1
 62
7
100
AcDbLine
 10
42.636431
 20
42.800515
 30
0.0
 11
42.267461
 21
42.865625
 31
0.0
  0
LINE
  5
383
100
AcDbEntity
  8
Ebene_1
 62
7
100
AcDbLine
 10
42.267461
 20
42.865625
 30
0.0
 11
41.887640
 21
42.797415
 31
0.0
  0
LINE
  5
384
100
AcDbEntity
  8
Ebene_1
 62
7
100
AcDbLine
 10
41.887640
 20
42.797415
 30
0.0
 11
41.585333
 21
42.592775
 31
0.0
  0
LINE
  5
385
100
AcDbEntity
  8
Ebene_1
 62
7
100
AcDbLine
 10
41.585333
 20
42.592775
 30
0.0
 11
41.372943
 21
42.265660
 31
0.0
  0
LINE
  5
386
100
AcDbEntity
  8
Ebene_1
 62
7
100
AcDbLine
 10
41.372943
 20
42.265660
 30
0.0
 11
41.269073
 21
41.836230
 31
0.0
  0
LINE
  5
387
100
AcDbEntity
  8
Ebene_1
 62
7
100
AcDbLine
 10
41.269073
 20
41.836230
 30
0.0
 11
43.148028
 21
41.839230
 31
0.0
  0
LINE
  5
388
100
AcDbEntity
  8
Ebene_1
 62
7
100
AcDbLine
 10
43.148028
 20
41.839230
 30
0.0
 11
43.148028
 21
41.839330
 31
0.0
  0
ENDSEC
  0
SECTION
  2
OBJECTS
  0
DICTIONARY
  5
C
330
0
100
AcDbDictionary
  3
ACAD_GROUP
350
D
  3
ACAD_MLINESTYLE
350
17
  0
DICTIONARY
  5
D
330
C
100
AcDbDictionary
  0
DICTIONARY
  5
1A
330
C
100
AcDbDictionary
  0
DICTIONARY
  5
17
330
C
100
AcDbDictionary
  3
STANDARD
350
18
  0
DICTIONARY
  5
19
330
C
100
AcDbDictionary
  0
ENDSEC
  0
EOF
